He Llorado Tanto

Balak

Genero:

Tablatura

 Hola de nuevo soy Israel y ahora vengo aportando esta
otra canción del grupo Balak que esta bien fácil de tocar,
Espero que les guste.
¡Haaa! y le mando un saludo a mi hermano Michel que le gusta
Esta canción, Y seguro va a ver esta transcripción.
Las notas son estas:
D G Bm F#m6
E -0---3---2----2-----
A -0---2---2----X-----
D -0---0---4----2-----
G -2---0---4----2-----
B -3---3---3----2-----
E -2---3---2----X-----
INTRO:
D G D G
E ----------------------------------------------------------
A -5-5-----5-5--10-10--10-10----5-5-----5-5--10-10--10-10---
D -7-7-----7-7--12-12--12-12----7-7-----7-7--12-12--12-12---
G ----------------------------------------------------------
B ----------------------------------------------------------
e ----------------------------------------------------------

Después se hace lo mismo pero con los acordes D y G
D G D G
E -5-5-----5-5--3-3---3-3-------5-5-----5-5--3-3---3-3------
A -5-5-----5-5--5-5---5-5-------5-5-----5-5--5-5---5-5------
D -7-7-----7-7--5-5---5-5-------7-7-----7-7--5-5---5-5------
G -7-7-----7-7--4-4---4-4-------7-7-----7-7--4-4---4-4------
B -7-7-----7-7--3-3---3-3-------7-7-----7-7--3-3---3-3------
E -5-5-----5-5--3-3---3-3-------5-5-----5-5--3-3---3-3------

ESTROFA 1
D G Bm F#m6
He vivido tanto para ti, solo quisiera hacerte más feliz
D G Bm F#m6
Me olvide de todas mis canciones, solo quise entregarme a ti
G F#m6 D F#m6
Y estoy aquí muriendo, si tus manos no están junto a mí.

CORO
D F#m6 Bm F#m6
Y he llorado tanto, que mis lágrimas apagan el sol,
D F#m6 Bm F#m6
Y he llorado tanto que la vida ya no es para mí,
G F#m6 D
Ya no quiero saber nada de ti.

D G

ESTROFA 1
D G Bm F#m6
Yo esperaba un poco más de ti, pero muy tarde comprendí
D G Bm F#m6
Que tú alma estaba envenenada, y ahora estoy muriéndome sin ti,
G F#m6 D F#m6
Y estoy aquí esperando, a que un milagro me salve de ti.

CORO
D F#m6 Bm F#m6
Y he llorado tanto, que mis lágrimas apagan el sol,
D F#m6 Bm F#m6 G
Y he llorado tanto que la vida ya no es para mí,
D F#m6
Y he sufrido tanto, que aquí tengo tu dolor,
Bm F#m6
Ven y llévate mi llanto, ya no quiero más amor
G F#m6 G
Ya no quiero saber nada de ti.

PUENTE
Bm F#m6 G F#m6
Quiero olvidar tu voz, tus palabras se lleven el viento contigo,
Bm F#m6 G
El recuerdo de tu piel, y los momentos que nunca debimos
F#m6
Se borren de mí.

CORO
D F#m6 Bm F#m6
Y he llorado tanto, que mis lágrimas apagan el sol,
D F#m6 Bm F#m6
Y he llorado tanto, que la vida ya no es para mí,
D F#m6 Bm F#m6
Y he sufrido taaaantooooooo,
D F#m6 Bm F#m6
He llorado tantoooooo (Que la vida ya no es para mí)
G F#m6 Bm F#m6 G
Ya no quiero saber de ti, ya no quiero vivir así