Circular

Bajofondo Tango Club

Genero: Pop

Tablatura

Introduccion: Em Am Em D

P1(Guitarra):
Em Am Em D
e|-----------------------------------------|--|
b|-----------------------------------------|--|
g|-----------------------------------------| |
d|---0/2--0--------------------------------| |
a|----------3-----2--3--2---2--3--2--------| |
E|-0----------------------------------3---0| |
|X2
Em Am Em D |
e|-----------------------------------------| |
b|-----------------------------------------| |
g|-----------------------------------------| |
d|-0/2---0---------------------------------| |
a|-------3--------2------------------------|--|
E|------------------------------------3---0|--|

Em Am Em D
siempre es terminar para volver a empezar
Em Am Em Am
el punto de partida es el de llegada
Em Am Em D
y vuelvo a recorrer el circulo sin fin
Em Am
que nunca voy a terminar
Em D
que nunca voy a terminar

Em Am Em D

(Guitarra)
Em Am Em D
e|-----------------------------------------|
b|-----------------------------------------|
g|-----------------------------------------|
d|---0/2--0--------------------------------|
a|----------3-----2--3--2---2--3--2--------|
E|-0----------------------------------3---0|

Em Am Em D
el tiempo es un rincón donde no se deja ver
Em Am Em Am
en este viaje sin pasado ni futuro
Em Am Em D
y si lo que vendrá no sera lo que fue
Em Am
ya nunca lo voy a saber
Em D
ya nunca lo voy a saber

Coro
Em Am Em A
voy dando vueltas voy por ahí
Em Am Em A
me da lo mismo frenar que seguir
C D Em A
y aunque no dejo de caminar
Em Am Em Am
no voy a ningún lugar

Em Am Em
la lluvia del mar
Am Em
la sombra de dos
Am Em
las marcas del sol
Am Em
un ruiseñor
Am Em
el viento del sur
Am Em
memoria fugaz
Am Em
orilla de luz
Am Em
estrella de sal

P2(Sintetizador):
Em Am Em D
e|---------7-----------------7---7----------|
b|-5-5----5-----5-5-5-5-----5---5---5-5-5-5-|
g|------------------------------------------|
d|------------------------------------------|
a|------------------------------------------|
E|------------------------------------------|

P3(violines):
e|-------10----| |-------------------------|
b|-7--8--------| |---7--8---10-------------|
g|-------------| |-------------------------|
d|-------------|X3|-------------------------|
a|-------------| |-------------------------|
E|-------------| |-------------------------|

Em Am Em D

Em Am Em D
siempre es terminar para volver a empezar
Em Am Em Am
el punto de partida es el de llegada
Em Am Em D
y vuelvo a recorrer el circulo sin fin
Em Am
que nunca voy a terminar
Em D
que nunca voy a terminar

Coro
Em Am Em A
voy dando vueltas voy por ahí |
Em Am Em A |
me da lo mismo frenar que seguir |
C D Em A | X2
y aunque no dejo de caminar |
Em Am Em Am |
no voy a ningún lugar |

Em Am Em
la lluvia del mar
Am Em
la sombra de dos
Am Em
las marcas del sol
Am Em
un ruiseñor
Am Em
el viento del sur
Am Em
memoria fugaz
Am Em
orilla de luz
Am Em
estrella de sal


(Sintetizador)
Em Am Em D Em Am
e|---------7---------------7----------7-----|--|
b|-5-5----5-----5-5-5-5---5----5-5---5------|--|
g|------------------------------------------| |
d|------------------------------------------| |
a|------------------------------------------| |
E|------------------------------------------| |
Em D | X2
e|----------7-7-----------------------------| |
b|-5-5-5-5-5-5------------------------------| |
g|------------------------------------------| |
d|------------------------------------------| |
a|------------------------------------------|--|
E|------------------------------------------|--|
Em Am Em D
e|---------------------------------------------|
b|-5-5----5-5----5-5----5-5----5-5---5-5/7--5/7|
g|---------------------------------------------|
d|---------------------------------------------| X2
a|---------------------------------------------|
E|---------------------------------------------|

(Violines)
e|-------10----| |-------------------------|
b|-7--8--------| |---7--8---10-------------|
g|-------------| |-------------------------|
d|-------------|X3|-------------------------|
a|-------------| |-------------------------|
E|-------------| |-------------------------|

Espero que les guste. Dedicado a mi ma SM.
Aguante BAJOFONDO!!