Las Puertas Del Amor

Bajo Tierra

Genero: Rock

Tablatura

/* ACERCA DE LA TRANSCRIPCIÓN
* Esta transcripción es una base para tocar la canción.
* Con esta no se pretende hacer una copia exacta de la canción original.
* El intérprete debe sentirse libre de añadir, cambiar o mejorar
* cualquier acorde, ritmo o nota que encuentre aqui. Alguna duda,
* comentario o sugerencia, con mucho gusto la atenderé. Espero que
* esta transcripción sea de utilidad para todos.
*/

/* ACERCA DE LA CANCIÓN
* Le guitarra está afinada un tono abajo de lo que normalmente se usa.
* Es decir, las notas al aire desde la 1ra hasta la 6ta cuerda son:
* d - A - F - C - G - D. De todos modos, no hay problema en afinarla
* de la forma tradicional. La canción consta de un arpegio y unos pocos
* acordes. Las notas del comienzo son hechas por un teclado pero igual
* se pueden hacer en la guitarra. Aqui está la base pero se puede adornar
* mucho más. Gracias a Daniel por los comentarios.
*/

INTRO:


d|------------------------------------------||
|------------------------------------------||
|--2-----2--1------1---0-----0-------------|| (x2)
|-----2---------2---------2-----4---0---4--||
|------------------------------------------||
D|------------------------------------------||
/

ARPEGIO PRINCIPAL (variaciones de Am):

(Se repite durante toda la estrofa)
d|--------0---------0--------0--------0-----||
|-----1---------1--------1--------1-----1--||
|--2---------1--------0--------------------||
|------------------------------4-----------||
|------------------------------------------||
D|------------------------------------------||
/

RIFF INTERMEDIO:

La trompeta hace algo así:

d|-----------------------------|| |--------------0-----------|
|--------0--1--3-----1--0-----|| |--------0--1-----0--1-----|
|--2--2--------------------2--|| y al final: |--2--2-----------------2--|
|-----------------------------|| |--------------------------|
|-----------------------------|| |--------------------------|
D|-----------------------------|| |--------------------------|
/ /

Luego la guitarra hace un rítmo rápido con Dm y Am.
Al final termina con un Em y cae a Am. En la letra se explica mejor
cómo y cuándo se hacen los cambios.

*****************************************************
*****************************************************

El resultado final, sería algo así:

INTRO

ARPEGIO PRINCIPAL

Las puertas del amor, se cierran en mi cara.
Lo nuestro terminó, la cosa está muy clara.
Soy ave del dolor, que canta en tu ventana.
Y eso que digo hoy, no lo sostengo mañana.


INTRO

ARPEGIO PRINCIPAL

Mil calles transité, entre fieras y balas.
El juego me curtió, no me funciona el alma.


RIFF INTERMEDIO

ARPEGIO PRINCIPAL

La puerta se cerró, soplándome en la cara.
La llave se perdió, no sirven tus plegarias.
La vida se me fue, en cosas de barriada.
Mi tiempo terimnó, soy cuenta cancelada.


RIFF INTERMEDIO

Dm Am
Y tiemblo y tiemblo mi amor.
Dm Am
Y tiemblo y tiemblo mi amor.
Dm Am
Escalofrío y sudor.
Dm Am
Y tiemblo y tiemblo mi amor.
Dm Am
Escalofrío y sudor.
Dm Am
Y tiemblo y tiemblo mi amor.
Dm Am
Escalofrío y sudor.
Dm Am Dm Am
Si te hace falta ya sé, dile que te abandoné.
Dm Am
Y tiemblo y tiemblo mi amor.
Dm Am
Y tiemblo y tiemblo mi amor.
Dm Am
Y tiemblo y tiemblo mi amor.
Dm Am
Y tiemblo y tiemblo mi amor.
Dm Am
Escalofrío y sudor.
Dm Am Dm Am
A veces lo que más duele resulta ser lo mejor, ser lo mejor.
Dm Am Dm Am
A veces lo que más duele resulta ser lo mejor, ser lo mejor.
Dm Am Em Am
A veces lo que máś QUIERES resulta ser lo PEOR.


La canción termina con el teclado tocando:


d|--------------||
|--------------||
|--2-----2--4--||
|-----2--------||
|--------------||
D|--------------||
/