Tuyo

Bajo Sueños

Genero:

Tablatura

 INTRO  X2


----5-7-8-7-8---5-7-8-7-5---5-7-8-7-5---5-7-8-7-5---5-7-8-7-5---5-7-8
--5-----------5-----------5-----------5-----------6-----------6------
---------------------------------------------------------------------
---------------------------------------------------------------------
---------------------------------------------------------------------
---------------------------------------------------------------------


-7-5---5-7-8-7-5---5-7-8-7-5---7-8-10-8-7---7-8-10-8-7---7-8-10-7-8--
-----6-----------6-----------8------------8------------8------------8
---------------------------------------------------------------------
---------------------------------------------------------------------
---------------------------------------------------------------------
---------------------------------------------------------------------


-7-8-10-8-7---5-7-8-7-5---5-7-8-10-12-17-12-13----12-----------------
------------5-----------5----------------------15----13-15p13-10p12--
---------------------------------------------------------------------
---------------------------------------------------------------------
---------------------------------------------------------------------
---------------------------------------------------------------------



---------------------------------------------------------------------
-8h10v---------------------------------------------------------------
---------------------------------------------------------------------
---------------------------------------------------------------------
---------------------------------------------------------------------
---------------------------------------------------------------------

Am F

Pienso que vienes y no estas y al final estoy solo

G C

Y me doy cuenta que tu eres la dueña de mi soledad

E Am

Pienso que todo el amor que en mis sueños te pude entregar

G C

Son solo ilusiones que se borran al despertar

E Am

Si habrá un lugar donde solo yo te pueda amar

F G

Donde el resto del mundo no nos pueda hallar



------------------------------------
------------------------------------
---------------2--------------------
-----------2-3---5-3-2--------------
-----2-3-5--------------5-3---------
-3-5--------------------------------

C G G-G-G#-Am F G

Tuyo, tuyo, este amor que al final no te puede dejar

C G G-G-G#-Am F G

Tuyo, tuyo, este amor que al final no te puede dejar


----5-7-8-7-8---5-7-8-7-5---5-7-8-7-5---5-7-8-7-5---5-7-8-7-5---5-7-8
--5-----------5-----------5-----------5-----------6-----------6------
---------------------------------------------------------------------
---------------------------------------------------------------------
---------------------------------------------------------------------
---------------------------------------------------------------------


-7-5---5-7-8-7-5---5-7-8-7-5---7-8-10-8-7---7-8-10-8-7---7-8-10-7-8--
-----6-----------6-----------8------------8------------8------------8
---------------------------------------------------------------------
---------------------------------------------------------------------
---------------------------------------------------------------------
---------------------------------------------------------------------


-7-8-10-8-7---5-7-8-7-5---5-7-8-10-12-17-12-13----12-----------------
------------5-----------5----------------------15----13-15p13-10p12--
---------------------------------------------------------------------
---------------------------------------------------------------------
---------------------------------------------------------------------
---------------------------------------------------------------------



---------------------------------------------------------------------
-8h10v---------------------------------------------------------------
---------------------------------------------------------------------
---------------------------------------------------------------------
---------------------------------------------------------------------
---------------------------------------------------------------------

SOLO 1

---------------------------------------------------------------------
-12s17v-----17b17-12-13-15-------------------------------------------
------------------------------------------------------------7--------
-----------------------------12s14-15-17---10-9-7----7-9-10---10-9-7-
---------------------------------------------------------------------
---------------------------------------------------------------------

---------------------------------------------------------------------
---------------------------------------------------------------------
------7-------------7-9-10-12-10-9-----------12h14-12h14p12-10-7-----
-9-10---10-9-7-9-10----------------12-10-9---------------------------
---------------------------------------------------------------------
---------------------------------------------------------------------





----------------------------------------------------------------------
----------------------------------------------------------------------
------------12---------12-------12------------------------------------
------12-------12-12-----12-12----------5-6-7v------------------------
----------------------------------------------------------------------
----------------------------------------------------------------------


*Aquí con las mismas notas de la estrofa anterior y luego el coro

Quiero que estés a mi lado y que sientas mi alma
Y Yo quiero darte el calor que soñaste una vez
Solo con vos llegare a vivir en mi mundo ideal
No habrá quien sumerja el eco de mi ansiedad
Que consuma las ganas de poder besarte
Y solo los dos nos podemos amar

Tuyo, tuyo, este amor que al final no te puede dejar
Tuyo, tuyo, este amor que al final no te puede dejar



SOLO 2



----------------------15---------------------------------------------
-17b-17vv---------15b-----15b-15p13-15vv-----10s13-13-13-13-13-13-13-
---------------------------------------------------------------------
---------------------------------------------------------------------
---------------------------------------------------------------------
---------------------------------------------------------------------

---------------------------------------------------------------------
-13p10v------10-12-13---15b-----15p13-15vv---------------------------
----------12---------------------------------------------------------
---------------------------------------------------------------------
---------------------------------------------------------------------
---------------------------------------------------------------------

----------------------15---------------------------------------------
-17b-17vv---------15b-----15b-15p13-15vv-----10s13-13-13-13-13-13-13-
---------------------------------------------------------------------
---------------------------------------------------------------------
---------------------------------------------------------------------
---------------------------------------------------------------------

---------------------------------------------------------------------
-13p10v------10-12-13---15b-----15p13-15vv---------------------------
----------12---------------------------------------------------------
---------------------------------------------------------------------
---------------------------------------------------------------------
---------------------------------------------------------------------

FINAL

E - F - G - Am