Soñándote

Bajo Sueños

Genero:

Tablatura

Intro: Em - C - Em - D - Em - C - Bm - A

(En la mitad de la nota D tiene un arreglo en las 2 primeras cuerdas)
e|-----3-3-5---||
B|--3-5-5---5--||

(Se repite todo esto 2 veces)


B C#m B F#m
En este momento tu rostro se pierde lento
B C#m G#m A
Mataste al marchar de nuestro sueño… y te quiero

(notas que acompañan a este solo)

Em - C - Bm - A

e|--10/12-12-10-8--7-5-5-3/5-3----5-7-8-7-5-3---------||
B|----------------------------7-7-------------5-7-8---||


B C#m
Hoy quisiera pensar que es solo un sueño gris
B F#m B
Y engañarle a mi piel que aun estás (estas) conmigo
C#m G#m A
Pero el frio recuerda que hoy no estás y te vas, te vas

Em C
Hoy me dejas caer
Em D
Me dejas soñándote
Em C
No me dejes caer
Bm A
No sobreviviré

(notas que acompañan a este solo)

B - C#m - B - F#m
B - C#m - G#m - A

e|----------------------------------------------------------
B|----------------------------------------------------------
G|--8-8-9-9-8--8/13-13-11-13-13-11-13--8-8-9-9-8--8/11-9/11-


e|----9-11-12--14-16-19--19-16-14-16-16-14-------------
B|-12--------------------------------------14-16-16-14-
G|-----------------------------------------------------

e|-------------------------||
B|----12/14--14-15-16-17---||
G|-16----------------------||


Em C
Hoy me dejas caer
Em D
Me dejas soñándote
Em C
No me dejes caer
Bm A
No sobreviviré… (2 Veces)


Em C Em D
Soñándote… yo viviré
Em C Bm A
Soñándote… no me dejes caer… (Esto hasta el final)




Esta es una muy excelente canción de BAJO SUEÑOS,que han
pedido muchisimo pues espero que entiendan y que la disfruten.

Escrita por Camilo Córdoba desde Colombia
Si necesitan algo me pueden escribir a: camo666@hotmail.es