Solo Tu, Solo Yo

Bajo Sueños

Genero:

Tablatura

Introducción:
-----------------------------------------------------------------------------2-
------------5-----------------5-----------------5-------------------5--------2-
------4-------4---------4-------4---------4-------4------------4------4------3-
----4---4-------4-----4---4-------4------4--4-------4--------4---4------4----4-
--2-----------------0--------------------------------------------------------4-
---------------------------------------3------------------2------------------2-

Verso: (El verso va acompañado del siguiente arpegio o las notas)
--------------------------------------------
--------5---------5--------5-----------5---
------4---------4--------4-----------4-----
----4---------4--------4-----------4-------
--2---------0------------------------------
---------------------3----------2----------


Bm A G F# Bm
Pienso que ya nada puede ser igual
A G F# (Bm-A-G-F#) X2
La verdad es que siento que no estás aquí
Bm A G F# Bm
Fuego que calientas con tu piel
A G F# (Bm-A-G-F#)X2
Y encantado siento que yo estoy contigo
Pre coro:
D A
Déjame ver que solos tu y yo
D A
Podremos descubrir la verdad del amor
Bm A
Solo tú solo yo

Coro: (Rasgueado o arpegiado)
D F# Bm A
Déjame ver que tu estas aquí conmigo conmigo
D F# Bm F#
Déjame ver que tu estas aquí conmigo conmigo oooooo

Interludio: (Se toca el arpegio del verso 2 veces)

Verso 2: (Idéntico al primero)

Bm A G F# Bm
Yo no sé si vamos a cumplir
A G F# (Bm-A-G-F#)X2
El deseo que tenemos tú y yo oooo
Bm A G F# Bm
Fuego que calientas con tu piel
A G F# (Bm-A-G-F#)X2
Y encantado siento que yo estoy contigo

Pre coro: (Acompañado con el arpegio anterior)

D A
Déjame ver que solos tu y yo
D A
Podremos descubrir la verdad del amor
Bm A
Solo tú solo yo

Coro: (Rasgueado o arpegiado)

D F# Bm A
Déjame ver que tu estas aquí conmigo conmigo
D F# Bm F#
Déjame ver que tu estas aquí conmigo conmigo oooooo


Arpegio:(D-F#-Bm-A)-(D-F#-Bm-F#)

Coro: (Rasgueado o arpegiado)
D F# Bm A
Déjame ver que tu estas aquí conmigo conmigo
D F# Bm F#
Déjame ver que tu estas aquí conmigo conmigo oooooo

El buen rock cuencano un saludo para mi bro loko mashi y mi princes Dalisil S
att: DESS