Nada De Amor

Bajo Sueños

Genero:

Tablatura

+-----------------------------------------------+
| Bajo Sue~os |
| NADA DE AMOR |
| bajo sue~os |
| nada de amor () |
+-----------------------------------------------+
=========LAS PISADAS DEL ROCK EN ESPAÑOL=========


INTRO:
D Bb C D A (tocar con arpegio)

D F D F D F D F D (distorción)


D Bb
Con mi mente en blanco ya no puedo vivir
C D A
nada de amor, con nada en tu corazón
D Bb
Un recuerdo tuyo me hace sonreir
C D
donde estará mi amor en tu corazón


PRECORO:

F C D A
Pero recuerda que algún día yo te ame
F C D A
se que tu sabes que yo nunca te fallé

CORO:
D C
nada de amor, nada de amor
Bb C# D A
que aún se escucha el silencio entre tu y yo

D C
nada de amor, nada de amor
Bb C D A
que aún se escucha el silencio entre tu y yo


e---------------------------------------------------
B----6/7------7----9---11---12---11---9-------------
G---------------------------------------------------
D---------------------------------------------------
A---------------------------------------------------
E---------------------------------------------------

e---------------------------------------------------
B---------------------------------------------------
G---10-9-10---9/10---9-10--12--13--11--9--7-9-10----
D---------------------------------------------------
A---------------------------------------------------
E---------------------------------------------------

D Bb
Pero ten presente que el calor que te dió mi piel
C D A
fue de verdad y ya no lo sentirás
D Bb
Ahora que tan lejos tu te encuentras ya de mi
C D A
preguntaré al pasado en que fallé


PRECORO:

F C D A
Pero recuerda que algún día yo te ame
F C D A
se que tu sabes que yo nunca te fallé

CORO:
D C
nada de amor, nada de amor
Bb C D A
que aún se escucha el silencio entre tu y yo

D C
nada de amor, nada de amor
Bb C D A
que aún se escucha el silencio entre tu y yo


e-----------------------------------------------------------------
B-10---9---7-------------------10-----9--7------------------------
G-------------9---8-----8--10---------------9---7--5--7-9-10------
D-----------------------------------------------------------------
A-----------------------------------------------------------------
E-----------------------------------------------------------------

e-----------------------------------------------------------------
B-10--9-7------------10--9-7--------------------------------------
G--------9-8---8-10----------9-7--9----7-7-7-7--8/9--7-8--7-7-7-7-
D-----------------------------------------------------------------
A-----------------------------------------------------------------
E-----------------------------------------------------------------

D C
nada de amor, nada de amor
Bb C D A
que aún se escucha el silencio entre tu y yo

D C
nada de amor, nada de amor
Bb C D A D
que aún se escucha el silencio entre tu y yo


ACORDES:

Bb (A#) C (equivalencia al normal)
e---1-----------------------3---------
B---3-----------------------5---------
G---3-----------------------5---------
D---3-----------------------5---------
A---1-----------------------3---------
E---1-----------------------3---------

==================================================================
Si tienes alguna duda por favor mandame un e-mail
o si deseas alguna canción de un grupo solo pidemelo.
===================================================================

=================================================
Trancripcion de german ayala
(amgb@uio.satnet.net)