La Silueta De Tu Sombra

Bajo Sueños

Genero:

Tablatura

Esta canción es dedicada a la mujer que robó mi corazón,como la
fina arena se deslozó entre mis dedos, espero oigas tu corazón,
Jhenn te Amo.

INTO


C#m B
e/------------------------------------------------------------
B/---------------5-------5-------5---------------4-----4------
G/------------6-----6-------6------6-----------4---4-----4----
D/---------6-----------6-------6-----6-------4-------4-----4--
A/------4-------------------------------4--2------------------
E/------------------------------------------------------------


F#m C#m B
e/---------------------------------------------------------2----
B/--4--------------2-----2-----2--------------5----------4---4--
G/----4----------2---2-----2-----2----------6---6------4-------4
D/------4------4-------4-----4-----4------6-------6-------------
A/--------2-----------------------------4------------2----------
E/-----------2-----------------------2--------------------------



C#m
Solo tu eres la flor que me
B
Perfuma
F#
Embriagandome de amor y
C#m
Matando a la vez
B
Toda ilusion


C#m
No me mires mas asi que me
B
Lastimas
F#
Aferrandome al dolor
C#m B
De la verdad de tu piel


verso :

A C#m
Siempre estaras en mi mente
A
Y me lamento por estar
G#
Tan lejos de tu sol


coro:
E
Ya no te puedo oir
B
Ya no te puedo volver a sentir
C#m B
La verdad es que todo se acaba (X2)

C#m A B G#
Eso lo se heeeee y heeeee Noooo



C#m
Se que es verdas que ahora
B
Estas muy lejos
F#
y la distancia sabes bien
C#m
Que no podra llegar a ser
B
Ausiencia
C#m B
Y la uscuridad de tu mirada
F#
Se deshace de ilusion toda
C#m B
Pasion de mi piel

Verso...
Coro...