Falsas Promesas

Bajo Sueños

Genero:

Tablatura

                                    FALSAS PROMESAS (BAJO SUEÑOS)

Esta como algunas canciones de bajo sueños es excelente espero
y la transcripción les sirva de mucho.

Saludos a los panas de mi banda Ronald, Sebas y Javi
arriba “Rosa Negra”

A los panas del cole Alexita te mando un abrazo

A mis ñaños a mis brothers del alma Roque y Piero.

CRISTINA TE QUIERO MUCHISIMO TE MANDO UN BESOTE.


Intro
E.----------------------------------------------------------
B.----------------------------------------------------------
G.----------------------------------------------------------
D.----------------------------------------7xx5xx3x-2x2x2----
A.--------7-8--10-8--7-8-10-8--------7-8--------------------
E.-----5-5-5----------------------5-5-5---------------------

E.----------------------------------------------------------
B.----------------------------------------------------------
G.----------------------------------------9xx7xx5x-4x4x4-2--
D.----------------------------------------------------------
A.--------7-8--10-8--7-8-10-8--------7-8--------------------
E.-----5-5-5----------------------5-5-5---------------------

Este es el arpegio para entrar a la primera estrofa.

Am Dm E
E.-------------------- E.----0-------0--0- E.-----0--------0---0
B.----0---0----0----0- B.---3-3-------3--- B.------0---------0--
G.---2--2----2----2--- G.--2---2----2--2-- G.---1---0-----1---0-
D.--2----2----2----2-- D.-0-----0--0------ D.--2---------2------
A.-0------------------ A.----------------- A.-2-------2---------
E.-------------------- E.----------------- E.-------------------

Am
E.--------------------
B.----0---0----0----0-
G.---2--2----2----2---
D.--2----2----2----2--
A.-0------------------
E.--------------------

Este arpegio se repite hasta entrar al Pre Coro.

Am
Hace tiempo no importaba nada
Dm
solo la brisa que nos abrazaba
E Am Dm-E
y un sueño esperando realidad.

Am
Disfrutábamos falsas promesas
Dm
que ni el ocaso que las almas llevan
E Am
no pudiera hacernos separar.


Para entrar al Pre Coro hacemos lo siguiente

E.------------
B.------------
G.------------
D.-0--77-5-2--
A.-0--77-5-2--
E.-0--55-3-1--


Pre Coro:
F G-Am
Las olas suelen arrasar
Dm
aquellas frases que ahora no
E
no son verdad.

Coro:
Am F G Am F G
Se que tu ser se alejara
Am F G Am F G
se que tu ser se saciara.
Am Dm E
E.-------------------- E.----0-------0--0- E.-----0--------0---0
B.----0---0----0----0- B.---3-3-------3--- B.------0---------0--
G.---2--2----2----2--- G.--2---2----2--2-- G.---1---0-----1---0-
D.--2----2----2----2-- D.-0-----0--0------ D.--2---------2------
A.-0------------------ A.----------------- A.-2-------2---------
E.-------------------- E.----------------- E.-------------------


Am
E.--------------------
B.----0---0----0----0-
G.---2--2----2----2---
D.--2----2----2----2--
A.-0------------------
E.--------------------

Am
Nos cobijamos en amor intenso
Dm
y conquistamos casi el universo
E Am Dm-E
fuego su inocencia falsedad.

Am
Mi refugio siempre fueron tus brazos
Dm
y tu serás siempre mi compañera
E Am
solo esquirlas frescos de pasión.

E.------------
B.------------
G.------------
D.-0--77-5-2--
A.-0--77-5-2--
E.-0--55-3-1--

Pre Coro:
F G-Am
Las olas suelen arrasar
Dm
aquellas frases que ahora no
E
no son verdad.

Coro:
Am F G Am F G
Se que tu ser se alejara
Am F G Am F G
se que tu ser se saciara


Am F G Am F G
Se que tu ser se alejara
Am F G Am F G-Am
se que tu ser se saciara.

Solo:
E.------8--5--5h6p5----------------------------------------------
B.-/5--8----8------8-5--6h8p6-5-3-1-3-1------/5-5-5-6-8-6-5------
G.-------------------------------------2-------------------7-5---
D.------------------------------------------------------------7--
A.---------------------------------------------------------------
E.---------------------------------------------------------------

E.-5-8-10-12--10--8--15v---
B.-------------------------
G.-------------------------
D.-------------------------
A.-------------------------
E.-------------------------

Coro:

Am F G Am F G
Se que tu ser se alejara
Am F G Am F G
se que tu ser se saciara.
Am F G Am F G
Se que tu ser se alejara
Am F G Am F G-Am
se que tu ser se saciara.

En el final se repite en el intro solo que varia un poco.

E.-------------------------------------------------------------
B.-------------------------------------------------------------
G.-------------------------------------------------------------
D.----------------------------------------7xx5xx3x-2x2x2x2x2---
A.--------7-8--10-8--7-8-10-8--------7-8--------------------0--
E.-----5-5-5----------------------5-5-5------------------------


Espero y les sirva mucho la transcripcion comentarios a la dirección
jp.cristhiancoral393@hotmail.es