Pido Vivir En Paz

Bajo Llave

Genero:

Tablatura

La verdad no sé que pasó con este excelente grupo
sé que se presentaron en las eliminatorias de altavoz y
de ahí nunca más supe de ellos.
Igual, pero podemos contar con algunos de sus
grandes éxitos en youtube y spotify.




Bajo llave
Pido vivir en paz

INTRO G F#
E|------------------------------------|
B|------------------------------------|
G|------------------------------------|
D|--------------------------------5-4-|------------]
A|--2--5-5-5---2--5-5-5--2--5-5-5-5-4-| ]
E|--------------------------------3-2-| ]
] X2
B A ]
E|-------------------------------------| ]
B|-------------------------------------|---------- ]
G|---------------------------------4-2-|
D|---------------------------------4-2-|
A|--2--5-5-5---2--5-5-5--2--5-5-5--2-0-|
E|-------------------------------------|


G - F# B - A -x2


"RIFF"

G F# B A
Humillados en destino deseando progresar,
G F# B A
Olvidando nuestras tierras si las recuerdas morirás,
G F# B A
Ver a mucha gente que no puede avanzar,
G F# B A
Un infame asesino te roba tu tranquilidad,
G F# B A
Te roba tu dinero te roba tu dignidad
G F# B A
Sabes que es lo que pido…. PIDO VIVIR EN PAZ
G F# B A
AAHHHHH AHHHHHHHHHHHHHHHHHHH
G F# B A
AHHHHHHHHHHHHH AHHHHHHH

"CORO"

G F# B A
Somos los rockeros familia, somos toda música cultura
G F# B A
Basta ya de basura y cantemos por la libertad…
G F# B A
Pido vivir en paz,
G F# B A
no ser torturado por la estúpida maldad,
G F# B A
Mucha pobre gente no puede caminar,
G F# B A
Por que el mismo policía encarcelado está…


G - F# B - A -x2



G F# B A
Bajos las mentiras tu dinero han de robar,
G F# B A
Veinte por ciento para el pueblo ochenta para la maldad,
G F# B A
Entre hermanos nos matamos, Los soldados tienen miedo a morir,
G F# B A
La justicia no es violencia la justicia es dejar vivir…


G - F# B - A -x2
AHHHHHHH AHHHHHH

"CORO"

G F# B A
Somos los rockeros familia, somos toda música cultura
G F# B A
Basta ya de basura y cantemos por la libertad…
G F# B A
Pido vivir en paz,
G F# B A
no ser torturado por la estúpida maldad,
G F# B A
Mucha pobre gente no puede caminar,
G F# B A
Por que el mismo policía encarcelado está…

G - F# B - A -x2
AAAAAHH AHHHHHHHH


transcrita por ruffo maniático cualquier duda
escríbanme que les aclararé lo que necesiten.