No Te Quiero

Bajo Llave

Genero:

Tablatura

Siempre quise aprenderme este temazo.
Nadies nuca lo sacó para poder aprendérmela
y pues decidí sacarla por mi cuenta. Espero que os guste.


Intro
D Db
E|--------------------------|
B|--------------------------|
G|---7-----7-----7-----7----|
D|---7-----7-----7-----7----|
A|-5---5-5---5-4---4-4---4--|X2
E|--------------------------|

Bm G D A
E|---------------------------------------5-|
B|---3-----3-----------------------------5-|
G|---4-----4------4-----4-----7-----7----6-|
D|---4-----4------5-----5-----7-----7----7-|
A|-2---2-2---2----5-----5---5---5-5---5--7-|
E|--------------3---3-3---3--------------5-|


D Db
Te vas de mi no hubo explicación,
D Db
Olvido los momentos que me dio tu amor,
Bm G
Tu sonrisa no la quiero recordar pues en mi vida…
D A
alguien mejor estará…


D A G B A
Que te importa si te he de recordar,
D A G B A
Los desprecios de mi vida con el silencio te caerán.
D A G B A
Espérame sentada en el lugar donde tu corazón me hacia palpitar,
D A G B A
Y dile a tus tontos amiguitos que no te voy a extrañar.


"coro"

D A G A
-ya no te quiero… (x 4)


D A G B A
Vistiendo la ropa que me diste para empacar,
D A G B A
La rayare con mis grupos favoritos,
D A G B A
Y las blancas a cuadritos las voy a decorar.
D A G B A
Espérame sentada en el lugar donde tu corazón me hacia palpitar,
D A G B A
Y dile a tus tontos amiguitos que no te voy a extrañar.



"coro"

D A G A
-ya no te quiero… (x 4)


Ritmo reggae ACOMPAÑAMIENTO PAR EL PUNTEO
D - A - G - A

D A G A
No es que te extrañe, por qué la paso mejor con mis amigos,
D A G A
He pasado por malos ratos, y pasado por lo malo de estar contigo,
D A G A
Me siento mal cuando recuerdo que felices fuimos,
D A G A
Pero lo echaste a perder con tu amigo.


E|----------------------------|
B|----------------------------|
G|-7-7-7----------------------|
D|-x-x-x--7-7-7--5-5-5--------|
A|-5-5-5--7-7-7--5-5-5--7-7-7-|-------]
E|--------5-5-5--3-3-3--5-5-5-| ]
]x2
E|------------------------------| ]
B|------------------------------| ]
G|-7-7-7--9-9-9--12-12-12-11-10-| ]
D|-x-x-x--x-x-x--x--x--x--x--x--|---- ]
A|-5-5-5--7-7-7--10-10-10-9--8--|
E|------------------------------|


"coro"

D A G A
-ya no te quiero… (x 4)


Dudas ya saben,escríbanme !