Desilusión

Bajo Cero

Genero:

Tablatura

 Esta es una de las mejores baladas de la banda de rock nica bajo cero

Desilucion:

INTRO:
F C F C
E------------------/----------------/----------------/-----------------
B------1-----1---1-/----1-----1---1-/----1-----1---1-/----1----1-------
G----0-----0-------/--0-----0-------/--0-----0-------/--0----0---------
D--3-----3-----3---/2-----2-----2---/3-----3-----3---/-----------0--2--
A------------------/----------------/----------------/3-----3----------
E------------------/----------------/----------------/-----------------

F C G
E------------------/----------------/--------0-------------------------
B------1-----1---1-/----1-----1---1-/----3-----3---3-------------------
G----0-----0-------/--0-----0-------/--0---0-----0---------------------
D--3-----3-----3---/2-----2-----2---/----------------------------------
A------------------/----------------/----------------------------------
E------------------/----------------/3---------------------------------

F C
Estoy pensando en todas aquellas palabras
F C
que un dia te dije y que no fueron nada
F C
estoy pensando en todo lo que hice
F C
para que estuvieras junto a mi
F C
pero nada te importo
F C
nada cambio
F C
desilusion
F C G F Fm
en el corazon, en el corazon, en el corazon.

CORO:
C G A F
Desilusion porque nada de aquello nada me quedo
C G A F G C
desilusion solo el recuerdo de oirte decir que no. (BIS)