Solo Un Segundo

Bacilos

Genero: Pop

Tablatura


Cada vez que oigo esta canción ( o cualquiera) recuerdo su nombre,
su pelo, su aroma, su risa, por permitirme escribir canciones,
por todo y mucho más, mi canción va para ti Andrea, para siempre.

Para el Intro traten de apagar los sonidos con la palma de la mano de manera
muy ligera.

Intro y Acompañamiento sobre versos:

|----------------- D -----------------| |--------------- Bm (Bm7)----------------|
e|----------------------------------------------------------------------------------
B|----------------------------------------------------------------------------------
G|----------7------------------7--------------------7---------------------7---------
D|------------7---7--------------7---7-----------------9---7-----------------9---9--
A|--5-5--5------5------5-5--5------5---------------------9---------------------9----
E|------------------------------------------7-7--7-----------------7-7--7-----------

|---------------- F#m --------------| |------------- G --------------|
e|---------------------------------------------------------------------
B|--------7------------------7-----------------8--------------8--------
G|----------6---6--------------6---6-------------7--7-----------7--7---
D|-4-4--4-----4------4-4--4------4------5-5--5-----5----5-5--5----5----
A|---------------------------------------------------------------------
E|---------------------------------------------------------------------


D
La recuerdo sin azúcar y sin crema y sin excusas
Bm Bm7
La recuerdo en la mañana despertándose en mi cama
F#m
La recuerdo en la pereza de una rutina que empieza
G
La recuerdo preocupada por lo que hoy no vale nada

D
La recuerdo en sus dilemas entre cuentas y poemas
Bm Bm7
En el ruido de la calle perdida siempre en los detalles
F#m
La recuerdo, sin vergüenza
G
La recuerdo en un segundo en que llego a lo mas profundo

Coro:

D Bm (Bm7) F#m (F#m/E) G
Y dejo en mi corazón, la marca de su amor en solo un segundo
Como fuimos a parar, del cielo a este lugar en solo un segundo, en un segundo
Como fuimos a parar, del cielo a este lugar en solo un segundo.

D
No recuerdo bien su cara, ni su voz ni su mirada
Bm Bm7
No recuerdo sus historias ni sus penas ni sus glorias
F#m
Lo que a veces me la encuentro caminando entre mis sueños
G
Me recuerdo un sentimiento del que ya no somos dueños

Coro

Esta canción la saque con una sola guitarra, pero si tienes alguien que toque
una segunda, y el puede hacer arreglos en base a Sol, y Re queda muy parecida.
Son apenas pequeños juegos con las ultimas dos cuerdas.

F#m/E

e|-2-
B|-2-
G|-2-
D|-2-
A|-4-
E|-2-