Barcelona

Bacilos

Genero: Pop

Tablatura

Bacilos
Barcelona

* Esta es una correcion al trabajo de Carlos que posteo la tablatura
primero

Intro:

e:-----------------------------------0-------------0------
B:-------5------------5------------2-------------2--------
G:-----6------------6------------2------2-1----2-----2-1--
D:---6-----7-6----6-----7-6-------------------------------
A:-4------------4-----------------------------------------
E:-----------------------------2-------------2------------

estrofa:

Tus besos son tímidos como de niña culpable, como una flor
e:------------------------2-2-2-2-2------6-6-6-6-6--5-5-5-5-5-------
B:--5-5-5-5-5--4-4-4-4-4--4-4-4-4-4------7-7-7-7-7--5-5-5-5-5-------
G:--6-6-6-6-6--5-5-5-5-5--3-3-3-3-3------8-8-8-8-8--6-6-6-6-6-------
D:--6-6-6-6-6--6-6-6-6-6--4-4-4-4-4------8-8-8-8-8--6-6-6-6-6-------
A:-4-----4--4-3-----3--3-2-----2--2-----6-----6--6--7-7-7-7-7-------
E:-------------------------------------------------5-----5--5-------
que se abre poquito a poco, besito a beso.
e:--4-4-4-4-4-
B:--5-5-5-5-5-
G:--4-4-4-4-4--2-2---2-2------5-5-6-5--
D:--6-6-6-6-6--4-4---4-4------6-6-7-6--
A:-4-----4--4--4-4---4-4------6-6-7-6--
E:------------2-2-2-3-3---3-4-4-4-5-4--- (REPETIR Notas)

Tus líneas se le acomodan a las líneas de mis manos
Y el miedo se va escapando por una esquina de nuestro abrazo.

Te abrazo y siento tu alma abrazar la mía
E:-2--
B:-2--
G:-2---------------------------------5-5-6-5--
D:-2---------------------------------6-6-7-6--
A:-4---------------------------------6-6-7-6--
E:-2---------------------------------4-4-5-4--

CORO:

E : 799977
Eb: 688866
D: 57775-
Dbm:45664-

E Eb D Dbm
Y la noche va dejándonos sólos, y cada mitad se acerca a su modo
A E Eb
Y dicen las calles de tu Barcelona que la noche es nuestra,
que la nita es nostra.

G:--5-5-6-5--
D:--6-6-7-6--
A:--6-6-7-6--
E:--4-4-5-4--

E Eb D Db
La vieja ciudad vestida de luces, de espuma de mar, de amores y cruces

A E Eb
Y yo sólo pido que nunca amanezca, que la noche es nuestra
Que la nita es nostra.

G:--5-5-6-5--
D:--6-6-7-6--
A:--6-6-7-6--
E:--4-4-5-4--

Que la nita es nostra. (Repitiendo intro)

(Repetir estrofa)

Canciones, cuántas canciones se mueren por la mañana.
No todo lo que se siente llega tan puro a la madrugada.
No todo lo que se siente viene del alma.

(Repetir coro)

Que la nita es nostra.(Repetir intro)