Supergirl

Babylon Chat

Genero:

Tablatura


Riff1:

C G D A
|-------------------------------------------------------------
|-------------------------------------------------------------
|-------------------------------------------------------------
|------2-2-3-3-5----------------0--0-4-4-5-5-7----------------
|-3--3----------------2-2-3-3-5----------------0--0-4-4-5-5-7-
|----------------3--3-----------------------------------------

C G D A
-------------------------------------------------------------|
-------------------------------------------------------------|
-------------------------------------------------------------|
------2-2-3-3-5----------------0--0-4-4-5-5-7----------------|
-3--3----------------2-2-3-3-55---------------0--0-4-4-5-4-0-|
----------------3--3-----------------------------------------|

Riff2:

C G D A
|----------------------------------------------------|
|----------------------------------------------------|
|-5----------------------7-7-7-7-7-7-7---------------|
|-5----------5-----------7-7-7-7-7-7-7-7-7-7-7-7-7-7-|
|-3----------5-----------5-5-5-5-5-5-5-7-7-7-7-7-7-7-|
|------------3-------------------------5-5-5-5-5-5-5-|

Riff3:

C G D A
|-----------------------------------------------------|
|-----------------------------------------------------|
|-5-----------------------7-7-7-7-7-7-7---------------|
|-5---------5-5-5-5-5-5-5-7-7-7-7-7-7-7-7-7-7-7-7-7-7-|
|-3---------5-5-5-5-5-5-5-5-5-5-5-5-5-5-7-7-7-7-7-7-7-|
|-----------3-3-3-3-3-3-3---------------5-5-5-5-5-5-5-|

Riff4:

C G D A
|-----------------------------------------------------------|
|-----------------------------------------------------------|
|-5-5-5-5-5-5-5-5---------------7-7-7-7-7-7-7---------------|
|-5-5-5-5-5-5-5-5-5-5-5-5-5-5-5-7-7-7-7-7-7-7-7-7-7-7-7-7-7-|
|-3-3-3-3-3-3-3-3-5-5-5-5-5-5-5-5-5-5-5-5-5-5-7-7-7-7-7-7-7-|
|-----------------3-3-3-3-3-3-3---------------5-5-5-5-5-5-5-|

Riff5:

B E G A B E G
|----------------------------------------------------------------------------------------------------------|
|----------------------------------------------------------------------------------------------------------|
|---------------9-9-9-9-9-9-9---------------------------------------9-9-9-9-9-9-9--------------------------|
|-9-9-9-9-9-9-9-9-9-9-9-9-9-9-5-5-5-5-5--5--5-5-5-5-7-9-9-9-9-9-9-9-9-9-9-9-9-9-9-5-5-5-5-5--5-5-5-5-5-5-5-|
|-9-9-9-9-9-9-9-7-7-7-7-7-7-7-5-5-5-5-5--5--5-5-5-5-7-9-9-9-9-9-9-9-7-7-7-7-7-7-7-5-5-5-5-5--5-5-5-5-5-5-5-|
|-7-7-7-7-7-7-7---------------3-3-3-3-3--3--3-3-3-3-5-7-7-7-7-7-7-7---------------3-3-3-3-3--3-3-3-3-3-3-3-|


Riff6:

D G D G D G C G C G C G
|------------------------------------------------------------------------------------------------------|
|------------------------------------------------------------------------------------------------------|
|-7--7--7-7-7-----------------7--7--7-7-7-----------------7--7--7-7-7-----------------5-----5-----5----|
|-7--7--7-7-7-5-5-5-5-5-5-5-5-7--7--7-7-7-5-5-5-5-5-5-5-5-7--7--7-7-7-5-5-5-5-5-5-5-5-5--5--5--5--5--5-|
|-5--5--5-5-5-5-5-5-5-5-5-5-5-5--5--5-5-5-5-5-5-5-5-5-5-5-5--5--5-5-5-5-5-5-5-5-5-5-5-3--5--3--5--3--5-|
|-------------3-3-3-3-3-3-3-3-------------3-3-3-3-3-3-3-3-------------3-3-3-3-3-3-3-3----3-----3-----3-|

Riff7:

C G D A C G D A
|---------------------------------------------------------------------------------------------------------------|
|---------------------------------------------------------------------------------------------------------------|
|-5---x-x-x-x-x----x-x-x-x-x-7--x-x-x-x-x-x----x-x-x-x---5--x-x-x-x-5-----x-x-x-x----7--7-7-7-7-7---------------|
|-5---x-x-x-x-x-5--x-x-x-x-x-7--x-x-x-x-x-x-7--x-x-x-x-7-5--x-x-x-x-5--5--x-x-x-x-5--7--7-7-7-7-7-7-7-7-7-7-7-7-|
|-3---x-x-x-x-x-5--x-x-x-x-x-5--x-x-x-x-x-x-7--x-x-x-x-7-3--x-x-x-x-3--5--x-x-x-x-5--5--5-5-5-5-5-7-7-7-7-7-7-7-|
|---------------3---------------------------5----------5---------------3----------3---------------5-5-5-5-5-5-5-|


Estructura:

Intro; Riff1

Verso1; Riff2 + Riff3 + Riff4 + Riff4

Interludio; Riff1

Verso2; Riff2 + Riff3 + Riff3 + Riff3

Pre-estribillo; Riff5

Estribillo; Riff6 + Riff6

Verso2; Riff7 + Riff4 + Riff4

Pre-estribillo; Riff5

Estribillo; Riff6(se le añaden unos acordes para conectar con el solo; D A D A D A)

Solo; con Riff5 varias veces

Estribillo; Riff6 añadiendo una secuencia más de C G C G C G