Ritual

Babylon Chat

Genero:

Tablatura

3 riffs y ya la tienes, ahí van;

-Verso:

A C
--------------------------
-------------5------------
-2-2---2-2---5------------
-2-2---2-2---5------------
-0-0---0-0---3------------
------------------0-3-0-3-

-Preestribillo:

F D

-----------0--------------0--------
------1------1----------3----3---3-
---2----2------2------2--------2---
-3----------------0----------------
-----------------------------------
-----------------------------------

-Estribillo:

A C B A D
-----------------------------
--------------3--3-3---------
-2--5--4--2---2--2-2---------
-2--5--4--2---0--0-0---------
-0--0--0--0-0----------------
---------------------0-3-0-3-

Para el solo hay que usar principalmente la escala pentatónica
en A menor.