No Tocarme

Babylon Chat

Genero:

Tablatura

Esta canción de Babylon Chat es muy rockera,
allá van lon riffs:

Riff1
|------------------2-----|
|----2----3--3h2---3-----|
|2-2-2----2--2h2---2---2-|
|2-2-2----4--4h2---0---4-|
|0-0-0----0--0-0-------4-|
|----------------------2-|

Riff2
|--------------------------------------------|
|--------------------------------------------|
|--------------------2-2-4-2-----------------|
|2-2-4-2---2-2-4-2---0-0-0-0-0-4-------------|
|0-0-0-0-0-0-0-0-0-0-----------4-4-4-4-4-4-4-|
|------------------------------2-2-2-2-2-2-2-|

Riff3
|---------------------------------------------2-|
|--2-2-3-2-2-3p2---2-----3-----------------2--2-|
|--2-2-2-2-3-2p2---2-----2-2-4-2-4-------2------|
|--2-2-4-2-4-4p2-2-2-2-2-0-0-0-0-0----4---------|
|--0---------0-0-0-0-0-0------------4-----------|
|-----------------------------------2-----------|


Riff4
|------------------------------------------------------------|
|--------------------------------3---3-----------------------|
|----2-------------2-------------2-2-2-2-4p2-----------------|
|----2-2-4---2-----2-2-4---2-----0-0-0-0-0-0-0-4-------------|
|4-3-0-0-0-0-0-4-3-0-0-0-0-0-0-0---------------4-4-4-4-4-4-4-|
|----------------------------------------------2-2-2-2-2-2-2-|

Riff5(rasgueando o dejando sonar)

|----------2-------------------------2------------|
|----------3-------2-----------------3------------|
|1---------2-------2--------1--------2------------|
|2---------0-------2--------2--------0------------|
|2-----------------0--------2---------------------|
|0--------------------------0---------------------|



Estructura:

Riff1
Riff2 x2
Riff3(verso) x2
Riff4
Riff3(veso2) x2
Riff5(pre-estribillo)
Riff2/Riff4(estribillo) x2
Riff2
Riff3(verso) x2------(ojo con el PM inicial y el Riff4, que deja su huella)
Riff5(pre-est.)
Riff2/Riff4(estr) x2
Solo=Riff2 x2 + E G D rasgueados
Riff2/Riff4(estr.) unas cuantas veces
y se acba con tres acordes; E G y D, añadiendo un
relleno final tipo;
|---------------------|
|----------2----------|
|--------2-2----------|
|--------2-2----------|
|3b(4)-0-0-0----------|
|---------------------|


Esto es todo, espero que suene bien.