Camaleón

Babylon Chat

Genero:

Tablatura

Aquí los Babylon se curran unos arpegios en el estribillo
que he tratado de emular arreglándolos para tocarlos con una
sola guitarra. Fijate también como pulsa de de diferentes maneras
los riffs a lo Chuck Berry, eso tiene mucho feeling!

Ahí van los riffs:

Riff1

E G5 E G5
|------------------------------------------|
|-9--9----9--9----9--9---------------------|
|-9--9----9--9----9--9-------0-------0-----|
|-9--9----9--9----9--9-------0-------0-----|
|-7--7----7--7----7--7-------x-------x-----|
|-0--0----0--0----0--0----0--3---0---3-----|

Riff2

A5
|--5---5---5--5--5---5-5--5--5-5--5-5--------|
|--5---5---5--5--8-7-5-5--5--5-5--5-5--------|
|--------------------------------------------|
|--------------------------------------------|
|--------------------------------------------|
|--------------------------------------------|

Riff3

A5
|-----5--5--5-5--5--5---5-5--5--5--5--|
|-----5--5--5-5--5--8-7-5-5--5--5--5--|
|-5h6---------------------------------|
|-------------------------------------|
|-------------------------------------|
|-------------------------------------|

Preestribillo1

B5 D5 A5
|-----------------------------------------------------------|
|-----------------------------------------------------------|
|-------------------------------2-2-4---2-2-4-2--2-2--2-----|
|-4-4-6---4-4-6---4-4-6-4--6-4--0-0-0-0-0-0-0-0--2-2--2-----|
|-2-2-2-2-2-2-2-2-2-2-2-2--2-2-------------------0-0--0-----|
|-------------------------------------------------------3-2-|

estribillo

E B C#m A
|-----0-----0-------0-----0------0-----0------0----0------|
|-------0-----0-------0----0-------0-----0------2---------|
|--1------1-----1-4-----4----4-6-----6-----6-2----2-------|
|--2--------------4------------6-------------2------------|
|--2--------------2------------4-------------0------------|
|--0--------------------------------------------------3-2-|


E B C#m A G
|-----0-----0-------0-----0------0-----0----------------|
|-------0-----0-------0----0-------0-----0--------------|
|--1------1-----1-4-----4----4-6-----6-----6-2-2-2--2-0-|
|--2--------------4------------6-------------2-2-2--2-0-|
|--2--------------2------------4-------------0-0-0--0-x-|
|--0--------------------------------------------------3-|


Preestribillo2

B5 D5 A5
|-----------------------------------------------------|
|------------------------3-------------3--------------|
|-4---------------4-4-4-x2---4---2---4-2--2-2--2------|
|-4----6-4---6-4--4-4-4-x0-0-0-0-0-0-0-0--2-2--2------|
|-2--2-2-2-2-2-2--2-2-2-------------------0-0--0------|
|-------------------------------------------------3-2-|


Y aquí la estructura:

-Intro=Riff1 x4

-Verso1=Riff2 + Riff1(x2) + Riff 3 + Riff1(x2)

-Preestribillo1

-Estribillo

-Puente:Riff1 x2

-Verso2=Riff3 + Riff1(x2) + Riff 3

-Preestribillo2

-Estribillo

-Solo(lo mejor es improvisar)

-Preestribillo2

-Estribillo x2

-y acordes de E sueltos para acabar

-Solo(lo mejor es improvisar)

-Preestribillo2

-Estribillo x2

-y acordes de E sueltos para acabar