Bump Bump Bump

B2k

Genero: R-b

Tablatura

-------------------------------------------------------------------------------
Bump, Bump, Bump – B2K
-------------------------------------------------------------------------------

Tabbed by: string_liznerz
Email:stringlizner@aol.com

Intro

[tab]e|-4---6-7-6--6-7-6--3-4---4---6-7-6--6-7-6--3-4-----------------------------|
B|-4-----------------------4-------------------------------------------------|
G|-4-----------------------4-------------------------------------------------|
D|-6-----------------------6-------------------------------------------------|
A|-6-----------------------6-------------------------------------------------|
E|-4-----------------------4-------------------------------------------------|[/tab]

[tab]e|-4-----------------------4--------------------------x----------------------|
B|-5---4-5-4--4-5-4--------5---4-5-4--4-5-4-----------8----------------------|
G|-6-----------------4-6---6-----------------4--------8----------------------|
D|-6-----------------------6--------------------------8----------------------|
A|-4-----------------------4--------------------------6----------------------|
E|---------------------------------------------------------------------------|[/tab]

Verse

[tab]e|-4--6-7-6--3-5---4--6-7-6--3-5---4---------------4-------------x-----------|
B|-4---------------4---------------5--4-5-4--------5--4-5-4------8-----------|
G|-4---------------4---------------6---------4-6---6--------4----8-----------|
D|-6---------------6---------------6---------------6-------------8-----------|
A|-6---------------6---------------4---------------4-------------6-----------|
E|-4---------------4---------------------------------------------------------|[/tab]

Chorus

[tab]e|-4--6-7-6--3-5---4--6-7-6--3-5---4---------------4-------------x-----------|
B|-4---------------4---------------5--4-5-4--------5--4-5-4------8-----------|
G|-4---------------4---------------6---------4-6---6--------4----8-----------|
D|-6---------------6---------------6---------------6-------------8-----------|
A|-6---------------6---------------4---------------4-------------6-----------|
E|-4---------------4---------------------------------------------------------|[/tab]