Jumanji

B Young (uk)

Genero: R-b

Tablatura

[Acoustic Guitar]                                                     

[tab]e|----------------------|--------------------|-------------------------------------------------|
B|----------2---------2-|--------1---------1-|----------------------------2-1------------------|
G|-------3---------3----|-----2---------2----|----------------------------1-1---1--------------|
D|--1-1---------1-------|--3---------3-------|-------1--3------1--3-----1-------1--------------|
A|----------------------|--------------------|--1-1---------1---------1------------------------|
E|----------------------|--------------------|-------------------------------------------------|[/tab]


[tab]e|----------------------|--------------------|-------------------------------------------------|
B|----------2---------2-|--------4---------1-|----------------------------2-1------------------|
G|-------3---------3----|-----2---------2----|----------------------------1-1---1--------------|
D|--1-1---------1-------|--3---------3-------|-------1--3------1--3-----1-------1--------------|
A|----------------------|--------------------|--1-1---------1---------1------------------------|
E|----------------------|--------------------|-------------------------------------------------|[/tab]



[Lead]

[tab]e|--6-8-9-8-6-------------------|--6-8-9-8-6--------------------------------------------------|
B|------------9-7--------6------|------------9-7----9----6------------------------------------|
G|------------------------------|-------------------------------------------------------------|
D|------------------------------|-------------------------------------------------------------|
A|------------------------------|-------------------------------------------------------------|
E|------------------------------|-------------------------------------------------------------|[/tab]



Acoustic Guitar runs for most of the song, the Lead runs during the chorus.