Ya No Estas Aquí

B-rock

Genero: Rap

Tablatura


Primera guitarra

[tab]E|-5^5~--5-4-5^5~--5-4-5^5~5/8-----5-4-5^---
B|---------------------------------------6~~
G|------------------------------------------
D|------------------------------------------
A|------------------------------------------
E|------------------------------------------[/tab]

Segunda guitarra

[tab] F Dm C A#
E|-1------------------- La primer nota de F con clean, las
B|-1------------------- demás llevan la distorsión.
G|-2-----7-----5-----3- después de tocar cada nota la volves
D|-3-----7-----5-----3- a tocar antes de tocar la siguiente.
A|-3-----5-----3-----1- En la ultima parte de la intro se
E|-1------------------- queda con F.[/tab]


Tercera guitarra

[tab]E|-1-1-3-1----- Toca esto durante casi toda la canción
B|-1-------1--- en algunas partes cambia un poco pero
G|-2---------2- solo son toques al aire en la primer
D|-3----------- cuerda
A|-3-----------
E|-1-----------[/tab]

En la estrofa y coros usa los mismos acordes de la segunda guitarra,
Solo cambia el F tocando solamente las ultimas tres cuerdas, ya que
si tocas todo el acorde no va asonar bien.

F
Con el brillo de la magia surgió
Dm
como un sueño que pronto llego
F
fue su nombre una realidad
Dm
que no debo ni pude alcanzar
C
pues fue así
A#
nada más que un sueño

el tenerte a ti.

F
Con promesas que hoy no se dan
Dm
como voces que jamás hablaran
F
hoy de tu imagen el recuerdo
Dm
perdido entre papeles
C
añejándose está tu recuerdo
A#
nada más que un sueño

el tenerte a ti.

CORO:
F C
Hoy no hay más que decir
Dm
el camino no es el mismo
A#
Sí tu no estas aquí
F C
hoy debo entender
Dm
que al despertar cada día
A#
tu no estas aquí.

[tab]E|---------------------------------------------------------------
B|-7~-6~--6-10-9-7~-6-10-9-10-9-10-9-10-7-6-7-6-7-6-7-6-7-6-7-6~-
G|---------------------------------------------------------------
D|---------------------------------------------------------------
A|---------------------------------------------------------------
E|---------------------------------------------------------------[/tab]

F
El tiempo fue el que nos dijo adiós
Dm
hoy mi mano fría quedo
F
sin embargo me siento igual que ayer
Dm
nunca pude dejarte de querer
C
es lo cierto
A#
nada mas fue un sueño

el tenerte junto a mí.

CORO x 1

SOLO: los acordes son F, C, D, A#, F, D, C, A#.

CORO X 2

OUTRO: La primer parte igual que la intro, la otra se queda con A#
y un punteo.
.....ya no estas aquí...

Esta es la primer rola que envió al a.t.a.m.e., y para mi
es la mejor rola que se ha hecho en El Salvador, ojala y algún día
vuelva a nacer un grupo tan bueno como B-ROCK. El solo Y la ultima
parte del outro los estoy trabajando, en otra ocasión los envió.
Dudas, correcciones, y comentarios escribir a wapmrock@