Call To Arms

B-movie Heroes

Genero:

Tablatura

[tab]Intro/Main Riff
E|----------------------------------------------------------------------|
B|-------------------8-8-8-8-6-6-6-6-------------------6-6-6-6-8-8-8-8--|
G|-------------------8-8-8-8-7-7-7-7-------------------7-7-7-7-8-8-8-8--|
D|--8-8-8-8-8-8-8-8-------------------1-1-1-1-1-1-1-1-------------------|
A|--8-8-8-8-8-8-8-8-------------------1-1-1-1-1-1-1-1-------------------|
D|--8-8-8-8-8-8-8-8-------------------1-1-1-1-1-1-1-1-------------------|[/tab]

[tab]E|----------------------------------------------------------------|
B|-------------------8-8-8-8-6-6-6-6------------------------------|
G|-------------------8-8-8-8-7-7-7-7------------------------------|
D|--8-8-8-8-8-8-8-8-------------------5-5-5-5-5-5-5-5\-3-3--3--3--|
A|--8-8-8-8-8-8-8-8-------------------5-5-5-5-5-5-5-5\-3-3--3--3--|
D|--8-8-8-8-8-8-8-8-------------------5-5-5-5-5-5-5-5\-3-3--3--3--| all x2[/tab]

[tab]E|------|
B|------|
G|------|
D|--8\--|
A|--8\--|
D|--8\--|[/tab]

[tab]First part of verse is just bass then:
Guitar One:
E|-----------------------------------|
B|-----------------------------------|
G|-----------------------------------|
D|------8---7-----------8---7--------|
A|--------------8---------------8----|
D|--8-8---8---8---8-8-8---8---8---8--|[/tab]
[tab] . . . . . . . . . .
E|-----------------------------------|
B|-----------------------------------|
G|-----------------------------------|
D|------8---7-----------8---7--------|
A|--6-6---6---6-8-6-6-6---6---6-8-6--|
D|-----------------------------------| all x2[/tab]
[tab] . . . . . . . . . .
Guitar Two
E|-----------------------------------|
B|-----------------------------------|
G|-----------------------------------|
D|--8-8-8-8-8-8-8-8-8-8-8-8-8-8-8-8--|
A|--8-8-8-8-8-8-8-8-8-8-8-8-8-8-8-8--|
D|--8-8-8-8-8-8-8-8-8-8-8-8-8-8-8-8--|[/tab]
[tab] . . . . . . . . . .
E|-----------------------------------|
B|-----------------------------------|
G|--8-8-8-8-8-8-8-8-8-8-8-8-8-8-8-8--|
D|--8-8-8-8-8-8-8-8-8-8-8-8-8-8-8-8--|
A|--6-6-6-6-6-6-6-6-6-6-6-6-6-6-6-6--|
D|-----------------------------------| all x2
. . . . . . . . . .[/tab]

[tab]Pre-chorus:
Guitar One (palm mute):
E|----------------------------------------------------------------------|
B|----------------------------------------------------------------------|
G|--0-0-3-3-2-2-3-3------3-3-2-2-3-3--7-7-5-5----------0-0-----3-3------|
D|-------------------3-3----------------------8-8-7-7------3-3-----3-3--|
A|----------------------------------------------------------------------|
D|----------------------------------------------------------------------|[/tab]

[tab]E|----------------------------------------------------------------------|
B|----------------------------------------------------------------------|
G|--0-0-3-3-2-2-3-3--8-8-7-7-5-5-----------------------4-4-4-4-6-6-6-6--|
D|-------------------------------8-8--5-5-5-5-7-7-7-7-------------------|
A|----------------------------------------------------------------------|
D|----------------------------------------------------------------------|[/tab]
[tab]Guitar Two:
E|-------------------------------------------------|
B|-------------------------------------------------|
G|-------------------------------------------------|
D|--5~--3~--8~--3-3-3-3--5~--1~--3333333333333333--|
A|--5~--3~--8~--3-3-3-3--5~--1~--3333333333333333--|
D|--5~--3~--8~--3-3-3-3--5~--1~--3333333333333333--|
................[/tab]

[tab]Chorus:
E|-----------------|
B|-----------------|
G|-----------------|
D|--8---3---5---1--|
A|--8---3---5---1--|
D|--8---3---5---1--| x2
For strumming pattern just do quavers (eighth notes)[/tab]

Main Riff
Verse (x4 instead of x2)
Pre-chorus
Chorus

Next there’s something with power chords that I cant work out, and a riff that I cant
out right now either.

[tab]Then:
E|----------------------------------------|
B|----------------------------------------|
G|----------------------------------------|
D|--8\--8-8---8-8--13---8\--8-8---8-8--3--|
A|--8\--8-8---8-8--13---8\--8-8---8-8--3--|
D|--8\--8-8---8-8--13---8\--8-8---8-8--3--| x4[/tab]

[tab]Solo kinda thing:
E|-------------------------------------------------------------------|
B|----------------6---------------6---------------6------------------|
G|------7---8p7---------7---8p7---------7---8p7---------8p7-8---8p7--|
D|--8-8---8-----8---8-8---8-----8---5-5---5-----5---3-3-------3------|
A|-------------------------------------------------------------------|
D|-------------------------------------------------------------------| x4[/tab]

Pre-chorus
Chorus

It ends with that bit I cant get. If anyone could give me some ideas I’d be greatful!
me: alexgrulestheworld@hotmail.co.uk