Dear Dad

B-mike

Genero: Rap

Tablatura (Ver letra)

-------------------------------------------------------------------------------
Dear Dad - B-Mike
-------------------------------------------------------------------------------
Tabbed by: Dion Rossini
(Thanks to Billal)


First tab done by ear so it's probably not correct but it's the best I could work out.
It's basically this on a loop. Enjoy :D

[tab](Simplified Version)
e|-0---0---2---5---8-7-5-7-----7-3-0-3-2-5-3-0-2---3-2---2-0-----------------|
B|-----------------------------------------------3-----3---------------------|
G|---------------------------------------------------------------------------|
D|---------------------------------------------------------------------------|
A|---------------------------------------------------------------------------|
E|---------------------------------------------------------------------------|[/tab]

[tab](Easy Version)
e|-0---0---2---5---8-7-5-7-----7-3-0-3-2-5-3-0-2---3-2---2-0-----------------|
B|---0---0---0---0-------------------------------3-----3---------------------|
G|---------------------------------------------------------------------------|
D|---------------------------------------------------------------------------|
A|---------------------------------------------------------------------------|
E|---------------------------------------------------------------------------|[/tab]

[tab](Harder Version)
e|-0---0---2---5---8-7-5-7-----7-3-0-3-2-5-3-0-2---3-2---2-0-----------------|
B|---0---0---0---0-------------------------------3-----3---------------------|
G|---------------------------------------------------------------------------|
D|---------------------------------------------------------------------------|
A|---------------------------------------------------------------------------|
E|-0-------------------------------0-----------------------0-----------------|[/tab]