Tempo Para Cantar

B Fachada

Album: B Fachada
Genero: Pop

Tablatura (Ver letra)

"Tempo para cantar" by portuguese artist B Fachada.

Everything here is my own take on this song. Enjoy.


[tab]VERSE
Strum the higher strings. The lower notes make the bass melody.
|---0--------0---0----0---0----0---0---0---0-----0---0---0--0----|
|---1--------0---0----0---0----0---0---0---0-----0---0---0--0----|
|---0--------0---0----0---0----0---0---0---0-----0---0---0--0----|
|---2--------0---0----0---0----0---0---0---0-----0---0---0--0----|
|---0----------5--------5--------3-------5-3-------5--------6----|
|----------3--------3--------1-------1---------3-------3----4----|[/tab]


[tab]CHORUS
|---0----0----0----1---|
|---1----0----1----1---|
|---0----1----0----2---|
|---2----2----2----3---|
|---3----2----0----3---|
|--------0---------1---|[/tab]

You can message me by pm here on ug or by commenting on the tab if you find the verse confusing.