Contramão

B Fachada

Genero:

Tablatura

-------------------------------------------------------------------------------
CONTRAMÃO - B Fachada
-------------------------------------------------------------------------------

B Fachada - Contramão ( https://www.youtube.com/watch?v=yItHp-52fxU )

Standard Tuning - EADGBE

This song's from B Fachada and
thus, I'll write in portuguese

Esta música faz uso do capotraste na 4ª casa.
Dou-vos os acordes, o ritmo é convosco pois é demasiado fácil.

*Porque x ou 0? Porque o som no fim vai ser o mesmo, vem do gosto da pessoa
se quiser tocar como o original (mais sentimento), siga pelo x.
Se quiser um som mais "alto", siga com o 0. São opções :)

[tab] c/ capo 4ª casa
4ªbox *
e|---0---|---0---|---0---|---0---|----------0-----|---0---|---0---|
B|---0---|---0---|---0---|---0---|----------0-----|---0---|---0---|repetir
G|---0---|---0---|---0---|---0---|----------0-----|---0---|---0---|da
D|---0---|---0---|---2---|---x---|----------xou0--|---xou0|---0---|4ª box
A|---2---|---2---|---3---|---6---|-----2/5--5-----|---4---|---3---|2 vezes
E|---0---|---2---|---3---|---7---|--0-------7-----|---5---|---3---|[/tab]

[tab] ~a afundar...
e|---0---|---0---|---0---|------0----||
B|---0---|---0---|---0---|------0----||
G|---5---|---0---|---0---|------0----||Repetir mais uma vez!
D|---4---|---2---|---1---|------0----||
A|---5---|---3---|---2---|------2----||
E|---x---|---3---|---2---|--0---0----||
aqui 1º
toque no
G é 0
dps é 5[/tab]

[tab] ~ahhh Di-a-na
e|---0---|---0---|---0---|---0---|---0---|---0---|---0---|---0---|
B|---0---|---1---|---3---|---1---|---0---|---2---|---0---|---0---|
G|---0---|---2---|---0---|---0---|---0---|---0---|---0---|---0---|
D|---0---|---3---|---4---|---2---|---0---|---2---|---0---|---7---|
A|---2---|-------|---5---|---3---|---2---|---0---|---3---|---6---|
E|---3---|-1-----|---5---|---3---|---0---|---0---|---3---|---7---|[/tab]

[tab]e|---0---|---0---|---0---|---0---|---0---||---0---|
B|---0---|---0---|---0---|---0---|---0---||---0---|
G|---0---|---0---|---5---|---0---|---0---||---0---|
D|---0---|---2---|---4---|---2---|---1---||---0---|
A|---4---|---3---|---5---|---3---|---2---||---2---|
E|---5---|---0---|---x---|---3---|---2---||---0---|[/tab]

Terminada a tab, espero que muitos aprendam
esta ótima música do Tio B


************************************

| / slide up
| \ slide down
| x Mute note

************************************