When Morning Comes

B. B. Mickinney

Genero:

Tablatura

-------------------------------------------------------------------------------
when morning comes - B.B. Mickinney
-------------------------------------------------------------------------------
Tabbed by:
E-mail:
key of Eb
Tuning:E-A-D-G-B-e

[tab]e|---------------------------------------------------------------------------|
B|---------------------------------------------------------------------------|
G|--------0----0--0--0---0-------0----------------------------0----0----0----|
D|-1--3---1----1--1--1---1---3------3--1----1-----1---1---3---1----1----1----|
A|---------------------------5---4--3--3----3--3--1---1---1------------------|
E|---------------------------------------------------------------------------|[/tab]
[tab] trials dark on every hand and we cannot understand all the ways that God
e|---------------------------------------------------------------------------|
B|---------------------------------------------------------------------------|
G|--0----0-----------0--------------0--------------------0----0--0----0---0--|
D|--1----1----3--1---1---3--3---3---1-----3---1----3-----1----1--1----1---1--|
A|------------1--1-------5--5-------------5----------------------------------|
E|---------------------------------------------------------------------------|[/tab]
[tab] would lead us to that blessed promise land but He'll guide us with His eye
e|---------------------------------------------------------------------------|
B|---------------------------------------------------------------------------|
G|------0-------------------------------0--0-------0---------0---------------|
D|-3---------3--1---1-------1--1---3----1--1-------1--3--3---0--3---1--------|
A|-5----4----3--3---3----3--1-------------------------5--5------1---1--------|
E|---------------------------------------------------------------------------|[/tab]
[tab] and we'll follow till we die we will understand it better by and by
e|---------------------------------------------------------------------------|
B|----------1----------------------------------1-----------------------------|
G|-------3-----0--------------------------3---------0------------------0-----|
D|-------1--1--1---3----1---1--------1----1----1----1-----1-3---3---3--1--3--|
A|-----------------3----3---3--3-----1--------------------1-5---5---------5--|
E|---------------------------------------------------------------------------|[/tab]
[tab]chorus: by and by when the morning comes when the saints of God are gathered
e|---------------------------------------------------------------------------|
B|-------------------1-------------------------------------------------------|
G|---------0----3--------0--------------------------------0---0--0--0--------|
D|-3----1--1----1----1---1-1---3----1---1-----1---1--3----1---1--1--1--3--3--|
A|-5-----------------------4---3----3---3--3--1------------------------5--5--|
E|---------------------------------------------------------------------------|[/tab]
[tab] home we will tell the story how we've overcome we will understand it better
e|---------------------------------------------------------------------------|
B|---------------------------------------------------------------------------|
G|-0-------------------------------------------------------------------------|
D|-3--3---1------------------------------------------------------------------|
A|----5---1------------------------------------------------------------------|
E|---------------------------------------------------------------------------|
by and by[/tab]



************************************

| / slide up
| \ slide down
| h hammer-on
| p pull-off
| ~ vibrato
| + harmonic
| x Mute note
| b Bend
| pb Pre-bend
| br Bend release
| pbr Pre-bend release
| brb Bend release bend

************************************