Vuelvo A Besar

Alejandra Guzmán

Genero: Pop

Tablatura

En la sección rapeada aparece Johnny \'PAPI CHULO\' Wigginns.

HABLADO:
- \'Good evening ladies and gentlemen\'
- \'Hi, Johnny!\'
- \'Give it up! Here we go!\'

INTRO
Gm Cm D7 Gm
e ---------------------------------------------------------------------
B ---------------------------------------------------------------------
G -----3--5--7v-----3--5--7--5-----5-----5-s-7-7-7-7-7-p-5-5-5-s-3-----
D --5------------5--------------8-----8-----------------------------5--
A ---------------------------------------------------------------------
E ---------------------------------------------------------------------

Gm Cm D7 Gm
e ---------------------------------------------------------------------|
B ---------------------------------------------------------------------|
G -----3--5--7v-----3--5--7--5-----5-----5-s-7-7-7-7-7-p-5-5-5-s-3-----|
D --5------------5--------------8-----8-----------------------------5--|
A ---------------------------------------------------------------------|
E ---------------------------------------------------------------------|

Gm
Vuelvo a besar
Cm7
vuelvo a volver a mirar
D7 Gm
buscando un corazón en tu silencio.


Gm
Sólo otra vez
Cm7
sobre mis huellas estoy
D7 Gm
no sé por qué siempre vuelvo a llamarte.


Cm7 F7
Siempre, sueño con verte
Gm
bajo el cielo de mi cuarto,

e -----------------------------------------------|
B -------------3---------------------------3-----|
G --5-r-3-h-5-----3-----3-3-----5-r-3-h-5-----5--|
D -------------------5------5--------------------|
A -----------------------------------------------|
E -----------------------------------------------|

Cm7 F7
quiero que sepas ver
Gm
mis pensamientos esta noche.

e ------------------------------------|
B -------------3----------------------|
G --5-r-3-h-5-----3-----3-3-----------|
D -------------------5------5----3-5--|
A ------------------------------------|
E ------------------------------------|


Gm
Vuelvo a empezar
Cm7
el día caerá aburrido
D7 Gm
estar lavando heridas sólo por lavar.


Gm
Te quiero así,
Cm7
voy a luchar por tu amor
D7 Gm
es necesario que sepa tu nombre.



Cm7 F7
Siempre, sueño con verte
Gm
bajo el cielo de mi cuarto,

e -----------------------------------------------|
B -------------3---------------------------3-----|
G --5-r-3-h-5-----3-----3-3-----5-r-3-h-5-----5--|
D -------------------5------5--------------------|
A -----------------------------------------------|
E -----------------------------------------------|
Cm7 F7
quiero que sepas ver
Gm
mis pensamientos esta noche;

e -----------------------------------------------|
B -------------3---------------------------3-----|
G --5-r-3-h-5-----3-----3-3-----5-r-3-h-5-----5--|
D -------------------5------5--------------------|
A -----------------------------------------------|
E -----------------------------------------------|


Cm7 F7
Siempre, sueño con verte
Gm
bajo el cielo de mi cuarto,

e -----------------------------------------------|
B -------------3---------------------------3-----|
G --5-r-3-h-5-----3-----3-3-----5-r-3-h-5-----5--|
D -------------------5------5--------------------|
A -----------------------------------------------|
E -----------------------------------------------|

Cm7 F7
quiero que sepas ver
Gm
mis pensamientos esta noche.

e ------------------------------------|
B -------------3----------------------|
G --5-r-3-h-5-----3-----3-3-----------|
D -------------------5------5----3-5--|
A ------------------------------------|
E ------------------------------------|


SECCIÓN RAPEADA
Gm
\'Ya no puedo, no puedo, no puedo, ya no puedo resistir
Cm
el cariño que tu me dabas pero mamita no puedo mentir,
D7
que te quiero, te amo, te quiero, te amo, yo si te necesito
Gm
solo dame un besito, suavecito, que te suplico,

te suplico que te olvides del pasado,
Cm
solo piensa en el futuro que el pasado está borrado,
D7
borrando y olvidando este corazón partido,
Gm
ya no quiero está vida loca, lo que quiero es estar contigo . . .\'


Cm7 F7
Siempre, sueño con verte
Gm
bajo el cielo de mi cuarto,

e -----------------------------------------------|
B -------------3---------------------------3-----|
G --5-r-3-h-5-----3-----3-3-----5-r-3-h-5-----5--|
D -------------------5------5--------------------|
A -----------------------------------------------|
E -----------------------------------------------|
Cm7 F7
quiero que sepas ver
Gm
mis pensamientos esta noche;

e -----------------------------------------------|
B -------------3---------------------------3-----|
G --5-r-3-h-5-----3-----3-3-----5-r-3-h-5-----5--|
D -------------------5------5--------------------|
A -----------------------------------------------|
E -----------------------------------------------|


Cm7 F7
Siempre, sueño con verte
Gm
bajo el cielo de mi cuarto,

e -----------------------------------------------|
B -------------3---------------------------3-----|
G --5-r-3-h-5-----3-----3-3-----5-r-3-h-5-----5--|
D -------------------5------5--------------------|
A -----------------------------------------------|
E -----------------------------------------------|

Cm7 F7
quiero que sepas ver
Gm
mis pensamientos esta noche.

e ------------------------------------|
B -------------3----------------------|
G --5-r-3-h-5-----3-----3-3-----------|
D -------------------5------5----3-5--|
A ------------------------------------|
E ------------------------------------|


FINAL Gm Cm D7 Gm Cm D7 (apagando)