Volverte A Amar

Alejandra Guzmán

Album: Indeleble
Genero: Pop

Tablatura (Ver letra)

Esta cancion le gusta a mi mama
empieza en...
00:49
Porque despues
E|--------------------------------------|
A|-------6(6)------------6(6)-----------|
D|--4(6)------6(12)-4(6)------66-66-66--|
G|--------------------------------------|

Porque, siempre
E|--------------|-22-22-------|-------------|-22-22-11-11--|
A|--44-44-44-44-|-------22-22-|-44-44-44-44-|--------------|
D|--------------|-------------|-------------|--------------|
G|--------------|-------------|-------------|--------------|

Eres para mi y esque
E|--6-5-4-3-2----||---4-2--|
A|---------------||-6------|
D|-----------2/4-||--------|
G|---------------||--------|

Volveria a apostar
E|--------|-4-4-|-45-4--|-4---|-4--|
A|--4-4h4-|-----|-----1-|---6-|----|
D|--------|-----|-------|-----|----|
G|--------|-----|-------|-----|----|

Porque despues
E|--2(6)------4(12)-2(6)------44-44-44--------|
A|-------6(6)------------6(6)----------8/9/0--|
D|--------------------------------------------|
G|--------------------------------------------|

Porque, siempre
E|--------------|-22-22-------|-------------|-22-22-11-11--|
A|--44-44-44-44-|-------22-22-|-44-44-44-44-|--------------|
D|--------------|-------------|-------------|--------------|
G|--------------|-------------|-------------|--------------|

Eres para mi y esque
E|--6-5-4-3-2----||---4-2-4--|
A|---------------||-6--------|
D|-----------2/4-||----------|
G|---------------||----------|

cuando tu me llamas
E|--------|-22-22-------|-------------|-22-22-11-11--|
A|--4/9/0-|-------22-22-|-44-44-44-44-|--------------|
D|--------|-------------|-------------|--------------|
G|--------|-------------|-------------|--------------|

Eres para mi y esque
E|--6-5-4-3-2--------||-----44-2-|-----44--|
A|-------------------||-6-6------|-6-6-----|
D|-----------2/4-2/4-||----------|---------|
G|-------------------||----------|---------|

E|-----|
A|--4--|
D|-----|
G|-----|

atte. miauricio gatolar