Vacuna Contra Este Amor

Alejandra Guzmán

Genero:

Tablatura


INTRO

D G D G
E --2--0-----0--2---3--2--0--------2---2--0-----0--2---3--2--0-|
B --3-----3-----3---3-----3--0---------3-----3-----3---3-----3-|
G --2-----2---------------------2------2-----2-----------------|
D --0---------------------------0------0-----------------------|
A -------------------------------------------------------------|
E ------------------3----------------------------------3-------|


D
Le sonrio cómo la Mona Lisa
G
soy un caso de atar, estoy perdida,
D
ya no me tengan piedad,
D
todo mi aire está contaminado
G
de un olor, una voz, un arrebato,
D
. . . odio mi debilidad,
Bm
me juré ya muchas veces
G
no lo escucharé, si siempre
A
ha sido caso perdido mi corazón.



D
Si no hay vacuna contra este amor
F#m
si no hay vacuna para este amor
G
caprichoso, incendiario,
C G A
y me estremece el malvado, el delicioso traidor,
D
Si no hay vacuna contra este amor
F#m
si no hay vacuna para este amor
G
caprichoso, incendiario,
C A
y me estremece el malvado, el delicioso traidor.


PUENTE

D G D G
E --2--0-----0--2---3--2--0--------2---2--0-----0--2---3--2--0-|
B --3-----3-----3---3-----3--0---------3-----3-----3---3-----3-|
G --2-----2---------------------2------2-----2-----------------|
D --0---------------------------0------0-----------------------|
A -------------------------------------------------------------|
E ------------------3----------------------------------3-------|


D
Como es de público conocimiento
G
me encuentro sola y lo echo de menos
D
lo llamo y cuelgo al hablar,
D
no entro por la puerta de servicio
G
si de costumbre llego sin aviso
D
para marearme en su mar,
Bm
me juré ya muchas veces
G
no lo escucharé, si siempre
A
ha sido caso perdido mi corazón.



D
Si no hay vacuna contra este amor
F#m
si no hay vacuna para este amor
G
caprichoso, incendiario,
C G A
y me estremece el malvado, el delicioso traidor,
D
Si no hay vacuna contra este amor
F#m
si no hay vacuna para este amor
G
caprichoso, incendiario,
C A D
y me estremece el malvado, el delicioso traidor.