Reina De Corazones

Alejandra Guzmán

Genero: Pop

Tablatura

 INTRO
PALM MUTING SOLO EN LA NOTA DE (R)
ACORDES D,A,B,C,B
G)----------------------------------------------------------------------
D)----------------------------------------------------------------------
A)--5-5--023-32222--5-5--023-32222--5-5--023-32222--5-5--023-32222------
E)----------------------------------------------------------------------
B)----------------------------------------------------------------------

VERSOS 1
RIES, LLORAS, MIENTES Y TE UMILLAS
ACORDES, D,B,C,G,A,D,A,B,A,C,A,C#
G)----------------------------------------------------------------------
D)----------------------------------------------------------------------
A)-55555555555555552222222233333333--------------55555550-02-03-04------
E)---------------------------------33333335555555-----------------------
B)----------------------------------------------------------------------


HUELGAS, GRITAS CAMBIAS DE ESTRATEGIA
ACORDES, D,B,C,G,A,D,C,B
G)----------------------------------------------------------------------
D)----------------------------------------------------------------------
A)-55555555555555552222222233333333--------------5555555--3--2----------
E)---------------------------------33333335555555-----------------------
B)----------------------------------------------------------------------

PRECORO

TODOS FELICES QUIEN ES EL LIBRE DE LA GUERRA
ACORDES E,G,A
G)----------------------------------------------------------------------
D)----------------------------------------------------------------------
A)----------------------------------------------------------------------
E)-0000000003333333355555555555555---------------------------------------
B)----------------------------------------------------------------------

CORO 1
REYNA DE CORAZONES
ACORDES D,B,E,F#,E,G,E,G#
G)----------------------------------------------------------------------
D)----------------------------------------------------------------------
A)-55555555555555522222222----------------------------------------------
E)------------------------0-02-03-04------------------------------------
B)----------------------------------------------------------------------

REYNA DE CORAZONES
ACORDES D,B,G,A
G)----------------------------------------------------------------------
D)----------------------------------------------------------------------
A)-55555555555555522222222----------------------------------------------
E)------------------------33333335555555--------------------------------
B)----------------------------------------------------------------------



REYNA DE CORAZONES
ACORDES D,B,E,F#,E,G,E,G#
G)----------------------------------------------------------------------
D)----------------------------------------------------------------------
A)-55555555555555522222222----------------------------------------------
E)------------------------0-02-03-04------------------------------------
B)----------------------------------------------------------------------

REYNA DE CORAZONES
ACORDES D,B,G,A
G)----------------------------------------------------------------------
D)----------------------------------------------------------------------
A)-55555555555555522222222----------------------------------------------
E)------------------------33333335555555--------------------------------
B)----------------------------------------------------------------------

INTRO 2
PALM MUTING SOLO EN LA NOTA DE (R)
ACORDES D,A,B,C,C,B
G)----------------------------------------------------------------------
D)----------------------------------------------------------------------
A)--5-5--023-32222--5-5--023-32222--------------------------------------
E)----------------------------------------------------------------------
B)----------------------------------------------------------------------

VERSOS 1
QUIERES DARME HIJOS UNA VIDA
ACORDES, D,B,C,G,A,D,A,B,A,C,A,C#
G)----------------------------------------------------------------------
D)----------------------------------------------------------------------
A)-55555555555555552222222233333333--------------55555550-02-03-04------
E)---------------------------------33333335555555-----------------------
B)----------------------------------------------------------------------


CARTAS PONES VERSOS
ACORDES, D,B,C,G,A,D,C,B
G)----------------------------------------------------------------------
D)----------------------------------------------------------------------
A)-55555555555555552222222233333333--------------5555555--3--2----------
E)---------------------------------33333335555555-----------------------
B)----------------------------------------------------------------------

PRECORO

BUSCATE LEJOS EN OTRO CIELO
ACORDES E,G,A
G)----------------------------------------------------------------------
D)----------------------------------------------------------------------
A)----------------------------------------------------------------------
E)-0000000003333333355555555555555--------------------------------------
B)----------------------------------------------------------------------


CORO 2
REYNA DE CORAZONES
ACORDES D,B,E,F#,E,G,E,G#
G)----------------------------------------------------------------------
D)----------------------------------------------------------------------
A)-55555555555555522222222----------------------------------------------
E)------------------------0-02-03-04------------------------------------
B)----------------------------------------------------------------------

REYNA DE CORAZONES
ACORDES D,B,G,A
G)----------------------------------------------------------------------
D)----------------------------------------------------------------------
A)-55555555555555522222222----------------------------------------------
E)------------------------33333335555555--------------------------------
B)----------------------------------------------------------------------



REYNA DE CORAZONES
ACORDES D,B,E,F#,E,G,E,G#
G)----------------------------------------------------------------------
D)----------------------------------------------------------------------
A)-55555555555555522222222----------------------------------------------
E)------------------------0-02-03-04------------------------------------
B)----------------------------------------------------------------------

REYNA DE CORAZONES
ACORDES D,B,G,A
G)----------------------------------------------------------------------
D)----------------------------------------------------------------------
A)-55555555555555522222222----------------------------------------------
E)------------------------33333335555555--------------------------------
B)----------------------------------------------------------------------

LO SIGUENTE ES LO MISMO QUE EL INTRO PERO SE SUBE UN TONO COMPLETO
PALM MUTING SOLO EN LA NOTA DE (E)
ACORDES E,B,C#,D,
G)----------------------------------------------------------------------
D)----------------------------------------------------------------------
A)--7-7--245-54444--7-7--245-54444--7-7--245-54444--7-7--245-0-02-03-04-
E)----------------------------------------------------------------------
B)----------------------------------------------------------------------


CORO 3
REYNA DE CORAZONES
ACORDES D,B,E,F#,E,G,E,G#
G)----------------------------------------------------------------------
D)----------------------------------------------------------------------
A)-55555555555555522222222----------------------------------------------
E)------------------------0-02-03-04------------------------------------
B)----------------------------------------------------------------------


YO SO LA REYNA DE CORAZONES
ACORDES D,B,G,A
G)----------------------------------------------------------------------
D)----------------------------------------------------------------------
A)-55555555555555522222222----------------------------------------------
E)------------------------33333335555555--------------------------------
B)----------------------------------------------------------------------


REYNA DE CORAZONES

ACORDES D,B,E,F#,E,G,E,G#
G)----------------------------------------------------------------------
D)----------------------------------------------------------------------
A)-55555555555555522222222----------------------------------------------
E)------------------------0-02-03-04------------------------------------
B)----------------------------------------------------------------------

REYNA DE CORAZONES
ACORDES D,B,G,A
G)----------------------------------------------------------------------
D)----------------------------------------------------------------------
A)-55555555555555522222222----------------------------------------------
E)------------------------33333335555555--------------------------------
B)----------------------------------------------------------------------


EL FINA REPITE EL INTRO ACABANDO EN G
PALM MUTING SOLO EN LA NOTA DE (R)
ACORDES D,A,B,C,G
G)----------------------------------------------------------------------
D)----------------------------------------------------------------------
A)--5-5--023------------------------------------------------------------
E)-----------3----------------------------------------------------------
B)----------------------------------------------------------------------

FIN....


BUENO ESPERO QUE LES ALLA GUSTADO LA ROLAS ES IGUAL ALA CANCION REAL


ALGUNA DUDA O SUGERENCIA FAVOR DE DECIRMELO
YO SOY RICARDO ZARATE MARTINEZ
DE CELAYA GUANAJUATO

MI MAIL ES
HIELO_HIELO22@HOTMAIL.COM