Guerra Fría

Alejandra Guzmán

Album: Cambio de piel
Genero: Pop

Tablatura (Ver letra)

Raza aqui les traigo un muy  buen solo de guitarra al 100%
pueden pedir rolas o solos al final esta el correo, ya que muchas
canciones que suben no estan bien con gusto corrigo acordes...
queda pendiente los arreglos de esta rola ya la tengo
pero despues la subo.

Muchas gracias.


Solo Guerra Fria


e|---------------------------------------------------------------------|
B|---15----------------------------------------------------------------|
G|------15bh16--13-----------------------------------------------------|
D|-----------------15--------------------------------------------------|
A|---------------------13h1413h11h13-----11-12-13--11-12-13-(x3)---11/-|
E|------------------------------------13-------------------------------|


e|-----------------------------13/15-15-----13-13------------------------|
B|------------------------13-16----------16--------15-16--15/16-11-------|
G|----------------13-15-15-----------------------------------------12-10-|
D|-------13-17-15--------------------------------------------------------|
A|-/13-15----------------------------------------------------------------|
E|-----------------------------------------------------------------------|


e|------------------------------------------------------------------------|
B|----11/13-11/13---------13---------------------------13-----------------|
G|----10/12-10/12----15b16---15b16h15h13----15b16h15b16----15b16h15h13----|
D|--------------------------------------15----------------------------15--|
A|------------------------------------------------------------------------|
E|------------------------------------------------------------------------|


e|-----------------------------------|
B|---------------------13------------|
G|-----------13-----------15h13------|
D|---------13----13h15---------15h13-|
A|----13h15--------------------------|
E|-----------------------------------|

e|---16------16-------------------------------------------------------|
B|-----------16-------------------------------------------------------|
G|-----15b16p--.16h15h13----------------------------------------------|
D|--------------------------------------------------------------------|
A|-----------------------13h14-h11---13h11---11h10---10h8-------------|
E|--------------------------------13-------13------11-----------------|


jonatan.lopez.medina@hotmail.com