Casa Del Sol Naciente

Alejandra Guzmán

Album: Dame tu amor
Genero: Pop

Tablatura (Ver letra)


INTRO

Bm D E G
E --------2------------2------------0------------1------
B ------3---3--------3---3--------0---0--------0---0----
G ----4-------4----2-------2----1-------1----0-------0--
D ---------------0--------------------------------------
A --2---------------------------------------------------
E ----------------------------0------------3------------

Bm F# Bm F#
E --------2------------2------------2------------2-----|
B ------3---3--------2---2--------3---3--------2---2---|
G ----4-------2----3-------3----4-------4----3-------3-|
D -----------------------------------------------------|
A --2-------------------------2------------------------|
E ---------------2-------------------------2-----------|


Bm D E G
Aquí nació, aqui soñó
Bm D F#
aquí vivió mi amor,
Bm D
pero ya no estás
E G
no sigues junto a mi
Bm F# Bm
no está mi amor, no está.



Bm D E G
E --------2------------2------------0------------1------
B ------3---3--------3---3--------0---0--------0---0----
G ----4-------4----2-------2----1-------1----0-------0--
D ---------------0--------------------------------------
A --2---------------------------------------------------
E ----------------------------0------------3------------

Bm F# Bm F#
E --------2------------2------------2------------2-----|
B ------3---3--------2---2--------3---3--------2---2---|
G ----4-------2----3-------3----4-------4----3-------3-|
D -----------------------------------------------------|
A --2-------------------------2------------------------|
E ---------------2-------------------------2-----------|



Bm D E G
Hogar del sol naciente
Bm D F#
sol que ya no está
Bm D E G
un sol que ya no alumbrará
Bm F# Bm
no, no alumbrará.



Bm D E G
E --------2------------2------------0------------1------
B ------3---3--------3---3--------0---0--------0---0----
G ----4-------4----2-------2----1-------1----0-------0--
D ---------------0--------------------------------------
A --2---------------------------------------------------
E ----------------------------0------------3------------

Bm F# Bm F#
E --------2------------2------------2------------2-----|
B ------3---3--------2---2--------3---3--------2---2---|
G ----4-------2----3-------3----4-------4----3-------3-|
D -----------------------------------------------------|
A --2-------------------------2------------------------|
E ---------------2-------------------------2-----------|



Bm D E G
Si nunca voy a verte
Bm D F#
si jamás tu volverás
Bm D E G
yo me iré muy lejos de este hogar
Bm F# Bm
donde al fin yo te pueda olvidar.



Bm D E G
E --------2------------2------------0------------1------
B ------3---3--------3---3--------0---0--------0---0----
G ----4-------4----2-------2----1-------1----0-------0--
D ---------------0--------------------------------------
A --2---------------------------------------------------
E ----------------------------0------------3------------

Bm F# Bm F#
E --------2------------2------------2------------2-----|
B ------3---3--------2---2--------3---3--------2---2---|
G ----4-------2----3-------3----4-------4----3-------3-|
D -----------------------------------------------------|
A --2-------------------------2------------------------|
E ---------------2-------------------------2-----------|



Bm D E G
Si nunca voy a verte
Bm F# Bm
jamás te voy a olvidar.


FINAL

Bm D E G Bm
E --------2------------2------------0------------1------2-|
B ------3---3--------3---3--------0---0--------0---0----3-|
G ----4-------4----2-------2----1-------1----0-------0--4-|
D ---------------0--------------------------------------4-|
A --2---------------------------------------------------2-|
E ----------------------------0------------3------------2-|