Noches De Abril

Airbag

Hola, me gusta mucho guns n’ roses y nunca pensé que Axel y
Slash pudieran convivir en la misma persona, la verdad los solos
Son muy slash y los coros del final son muy Axel rose.
Creo que es una digna copia se november rain.
De más esta decir que es un tema por demás complicado.
Si se animan la afinación esta en Eb como siempre, incluso los
Pianos. Dejo también la escala que usa. Se lo dedico a la fan + loca
que conozco que es mi hermana y a Camila Castrejon.
Suerte. Dudas ya saben alevoodoo@ovi.com

Nota: los B y Em de los párrafos son en el traste 7 olvide anotarlos.

INTRO PIANO:
B Em B
E--19-18-16---------------------------
B-----------19-17-16-19-17--16-14-16--
G-------------------------------------
D-------------------------------------
A-------------------------------------
E-------------------------------------

B Em B G#m C#m F#
Hay un lugar dentro de mí, que siente el silencio cuando se va de aquí,
B Em B G#m C#m F#
No se si es verdad no se si mentí yo solo quisiera que el viento no me deje
E
Dormir.

Riff piano: B Em B

B Em B G#m C#m F#
No se que hacer a donde ir tal vez la mañana tenga algo para mi,
B Em B G#m C#m
Y cuesta entender todo tiene un fin no siento en el alma su boca
F# E G#m F#
ya no quiere Reír.

E F# B G#m E F# B
Tal vez el mundo es así por mí, no ves me quema el dolor,
E F# G#m B C#m F#
Y cuando la noche le miente a los dos, solo nos queda el rencor,
E
Siento que todo es mejor.

SOLO 1 base: G#m B F# E F# B Em B G#m C#m F# x2 E G#m F#
G#m B F#
E-------------------------------------------------------
B-------------------------------------------------------
G---15^(16)r-13-/15~---11^(12)r-9-/11~---8^(9)r-6-/8~---
D-------------------------------------------------------
A-------------------------------------------------------
E-------------------------------------------------------
E F#
E------------------------------------
B------------------------------------
G---8p6/4-6~--8~-6/4-6-4-6~--8-9~----
D------------------------------------
A------------------------------------
E------------------------------------
B Em B
E--------------------------------------------15-------------------19~--
B---16~-16p15p14h15h16~--16p15p14h15h17~--17----19-17h19p17/16h17------
G----------------------------------------------------------------------
D----------------------------------------------------------------------
A----------------------------------------------------------------------
E----------------------------------------------------------------------


G#m C#m F#
E---18h19p18/15h16~--9h10p9p---9~-10p9p-------------/15~--
B---------------------------12h--------12p10p9p-----------
G----------------------------------------------11~--------
D---------------------------------------------------------
A---------------------------------------------------------
E---------------------------------------------------------
B Em
E---12h14~--------12h14h15~--15p14p12h14p12p---12p--------------------
B-----------12h14h--------------------------15h---15p14p12h14~---12~--
G---------------------------------------------------------------------
D---------------------------------------------------------------------
A---------------------------------------------------------------------
E---------------------------------------------------------------------
B G#m C#m F# E G#m F#
E---/21~-19~-18h19p18/15h16~-------------------------------------
B-----------------------------14h15p14/12h14~--12h14p12/11h12~---
G----------------------------------------------------------------
D----------------------------------------------------------------
A----------------------------------------------------------------
E----------------------------------------------------------------

B Em B G#m C#m F#
El cielo cayo en dos sobre mi no quieras matarme es solo un bello abril,
B Em B G#m C#m F#
No se si fue amor no se que sentí tan solo recuerdo que eras para mi,
E G#m F# (con RIFF 1)
Para mí...

E F# B G#m E F# B
Tal vez el mundo es así por mí, no ves me quema el dolor,
E F# G#m B C#m F#
Y cuando la noche le miente a los dos, solo nos queda el rencor,
E F# B G#m E F# B
Tal vez el mundo es así por mí, no ves me quema el dolor,
E F# G#m B C#m F#
Y cuando la noche le miente a los dos, solo nos queda el rencor,
E B
Siento que todo es mejor.

SOLO 2 base: G A / B A EVII G A x2 B Em B x2 (acordes quintos)
RIFF base de piano
E---19-19--------------------------------------------
B---------19-19-20-20-17-17-19-19-------17-17--------
G---------------------------------19-19-------19-18--
D----------------------------------------------------
A----------------------------------------------------
E----------------------------------------------------

SOLO GUITARRA (lo divido en partes rápidas y lentas)
//rápido...
E---19~-----17h19p17p15h17p15p---15p---------------------------------
B-----------------------------19h---19p17h19p17p15h17p15p---15p------
G--------------------------------------------------------18h---18p16h
D--------------------------------------------------------------------
A--------------------------------------------------------------------
E--------------------------------------------------------------------

E---------------------------------------------------------
B------------------15h17h19p17p15h17p15p------------------
G---18p16p14h16h18h---------------------18p16p14h16~------
D---------------------------------------------------------
A---------------------------------------------------------
E---------------------------------------------------------
//lenta...
E--------------------------------------/19~-19-21-22-22^~-22p21p19h21~--
B-----------14-15-17^rp15h17~-15~-14~-----------------------------------
G---16~--16-------------------------------------------------------------
D-----------------------------------------------------------------------
A-----------------------------------------------------------------------
E-----------------------------------------------------------------------
//rápido...
E---17h19p17p15h17p15p---15p------------------------------------------
B---------------------19h---19p17h19p17p15h17p15p---15p---------------
G------------------------------------------------18h---18p16h18p16p14h
D---------------------------------------------------------------------
A---------------------------------------------------------------------
E---------------------------------------------------------------------

E------------------------------------------------
B------------------------------------------------
G---16p14p---14p---------------------------------
D---------17h---17p16h17p16p14h16p14p------------
A------------------------------------16h17p14~---
E------------------------------------------------
//lento...
E------------------------------------------------------
B---------------------14~------------/17~--15-14-15~---
G-----------------/16-------16-------------------------
D--------11~-12~---------------16~---------------------
A---14~------------------------------------------------
E------------------------------------------------------
//rápida...
E----------------------/-------------------------/------------------
B---12h14h15p12h14h15--/------14h15h17p14h15h17--/------15p14p/12~--
G----------------------/-x2----------------------/-x2---------------
D----------------------/-------------------------/------------------
A----------------------/-------------------------/------------------
E----------------------/-------------------------/------------------
(*El B Em B lo hace arrastrando B5 a E5VII y volviendo)
B Em B G#m C#m F#
El tiempo paso lo sabes muy bien quisiera encontrarte un día como ayer
B Em B G#m C#m F#
La noche murió y el día se fue el tiempo me daba un raro amanecer
E G#m F# (con RIFF 1)
Otra vez

E F# B G#m E F# B
Tal vez el mundo es así por mí, no ves me quema el dolor,
E F# G#m B C#m F#
Y cuando la noche le miente a los dos, solo nos queda el rencor,
E B E B E B C#m F#
El se escondió en un cajón lejos de todo el dolo...or,
E B F# G#m E F# B
Y así pasó la eternidad, nadie lo vino a buscar.

Solo 3 base: G A / B A EVII G A x3 B (acordes quintos)
RIFF base de piano
E---19-19--------------------------------------------
B---------19-19-20-20-17-17-19-19-------17-17--------
G---------------------------------19-19-------19-18--
D----------------------------------------------------
A----------------------------------------------------
E----------------------------------------------------
SOLO GUITARRA (No mueras en soledad...)
//rápido...
E---17h19p17p15h17p15p---15p------------------------------------------
B---------------------19h---19p17h19p17p15h17p15p---15p---------------
G------------------------------------------------18h---18p16h18p16p14h
D---------------------------------------------------------------------
A---------------------------------------------------------------------
E---------------------------------------------------------------------

E------------------15h17p15p---15p------------------------------------
B---------15h17h19h---------19h---19p17h19p17p15h17p15p---------------
G---16h18h---------------------------------------------18p16p14h16~---
D---------------------------------------------------------------------
A---------------------------------------------------------------------
E---------------------------------------------------------------------
//lento... No mueras en soledad...
E-----------------19^r-17~--------17-21^r-19~----19~-------21~-22-21-19--
B-----------15-19--------------17----------------------------------------
G---16~--16-----------------18-------------------------------------------
D------------------------------------------------------------------------
A------------------------------------------------------------------------
E------------------------------------------------------------------------
//rápido...
E---17h19p17p15h17p15p---15p------------------------------------------
B---------------------19h---19p17h19p17p15h17p15p---15p---------------
G------------------------------------------------18h---18p16h18p16p14h
D---------------------------------------------------------------------
A---------------------------------------------------------------------
E---------------------------------------------------------------------

E------------------------------------------------------------------------
B---------15h17h19p17p15h17p15p------------------------------------------
G---16h18h---------------------18p16p14h16p14p---14p---------------------
D---------------------------------------------17h---17p16h17p16p14h16p14p
A------------------------------------------------------------------------
E------------------------------------------------------------------------

E---------------------------------------------------------------------15h
B------------------------------------------------------------15h17h19h---
G---------------------------------------------------14h16h18h------------
D------14p---------------------14p---14h16p14h16h17h---------------------
A---17h---17p16h17p16p14h16h17h---17h------------------------------------
E------------------------------------------------------------------------

E---17h19p17p15h17p15p---15p--------------------------------------------
B---------------------19h---19p17h19p17p15h17p15p-----------------------
G------------------------------------------------18p16p14h16h18h--------
D--------------------------------------------------------------15h17h19h
A-----------------------------------------------------------------------
E-----------------------------------------------------------------------
No mueras en soledad...
E---15h17p15p---15p------------------------------------------------------
B------------19h---19p17h19p17p15h17p15p----------------15-17^r-15-17~---
G---------------------------------------18p16p14h16~-18------------------
D------------------------------------------------------------------------
A------------------------------------------------------------------------
E------------------------------------------------------------------------

E--/--------------------/------------------------------------------------
B--/--------------------/------------------------------------------------
G--/--------------------/---------------------------------14h16h18p16p14p
D--/--------------------/-varias veces-----------14h16h17h---------------
A--/-14h16h17p14h16h17--/---------------14h16h17h------------------------
E--/--------------------/------------------------------------------------

E------------------------------------------------------------------------
B---------------------------------------------------------15h17h19p17p15h
G------------------------------------14h16h18p16p14h16h18h---------------
D---17p16p14p---------------14h16h17h------------------------------------
A------------17p16p14h16h17h---------------------------------------------
E------------------------------------------------------------------------

E----------------------------------------------------
B---17p15p---15p---------------------15h17h19p17p15h-
G---------18h---18p16h18p16p14h16h18h----------------
D----------------------------------------------------
A----------------------------------------------------
E----------------------------------------------------

E---19p17p15h---15p------------------------------------------------
B------------19h---19p17h19p17p15h17p15p---15p---------------------
G---------------------------------------18h---18p16h18p16p14h16h18h
D------------------------------------------------------------------
A------------------------------------------------------------------
E------------------------------------------------------------------

E-----------------------------------------------------------------
B---15h17h19p17p15h17p15p---------------------15h17h19p17p15h17---
G------------------------18p16p14h16p14h16h18h--------------------
D-----------------------------------------------------------------
A-----------------------------------------------------------------
E-----------------------------------------------------------------

//lento... No mueras en soledad...
E-------------15~-------17~-----19~---
B-------------------------------------
G-------------------------------------
D-------------------------------------
A-------------------------------------
E-------------------------------------

RIFF piano de intro

B Em B
Algo cambio dentro de mí...

RIFF 1
E---4-6-7~--7-6~---
B------------------
G------------------
D------------------
A------------------
E------------------

Referencias:
h: ligado ascendente
p: ligado descendente
^: estirar
^r: estirar y volver
~: vibrato
/: Slide
*: Armónico de púa
‘: tremolo de púa
(): armónico de tapping

El segundo y tercer solo son ligados ascendentes y descendentes sobre
La escala de D mayor, esta es D, E, F#, G, A, B, C#, D.
Igual dejo una tabla con las digitaciones dentro de los trastes que usa.

10 11 12 13 14 15 16 17 18 19 20 21
E| x| | x| | x| x| | x| | x| | x|
B| x| | x| | x| x| | x| | x| x| |
G| | x| x| | x| | x| | x| x| | x|
D| | x| x| | x| | x| x| | x| | x|
A| x| | x| | x| | x| x| | x| | x|
E| x| | x| | x| x| | x| | x| | x|

Si les parece imposible los solos recomiendo tomar las partes lentas
y dibujar las rápidas con otras cosas dentro de esta escala.
Lo he intentado y queda muy bien con triadas o estirajes.