Dear Friends

A Cutthroat Kiss

Genero:

Tablatura

Song: Dear Friends
Band: A Cutthroat Kiss
Album: Upon Our Last Night EP

Tabs By: Dave Johnson
Username: dave_johnson23
Email: lil_man23@hotmail.com

Tuning: EADGBe

Key:
~ - vibrato
h - hammer on
p - pull off
x - mute string
. - palm mute

This is my first tab ever so dont expect too much
and it was tabbed using my old run down classical guitar.
I couldn't find any tabs on these guys if anyone knows of any please e-mail me.

thnx to jimmi for correcting the intro.

INTRO
e-----------------------------------------------------|
b--8-------8-------8-------8--------------------------|
g------10-----10-----10-----10----9-10----------------|
d-----------------------------------------------------|
a-----------------------------------------------------|
e-----------------------------------------------------|



guitar2
e-------------------------------------------10---|x4then |---------|
b--6h7p6h7-----6h7p6h7-----6h7-------------------| |---------|
g---------------6----------------6---------------| |---------|
d------------------------------------------------| |-4~--66x-|
a------------------------------------------------| |-4~--44x-|
e------------------------------------------------| |-2~--44x-|
guitar 1 x4 guitar 2 x8
e|----------------------------------------| |-xxx-|guitar 2 plays this
B|----------------------------------------| |-xxx-|when guitar 1 stops
G|-11-11-11--10-10-10--4-4-4--13-13-13----| |-xxx-|and plays section
D|-x--x--x---x--x--x---x-x-x--x--x--x-----| |-xxx-|below, guitar 2 then
A|-9--9--9---8--8--8---6-6-6--11-11-11----| |-xxx-|continues with the
E|----------------------------------------| |-xxx-|rest.

guitar 1
e|-------------------------------------------|x4 then |----|played once
B|-6h7p6p7-----6h7p6h7-----9--10-------------| |----|by guitar 1
G|----------6-----------6--------------------| |----|and several
D|-------------------------------------------| |-4~-|times with
A|-------------------------------------------| |-4~-|guitar 2.
E|-------------------------------------------| |-2~-|

Verse
guitar 1
e|--------------------------------------------------------------------|
B|--------------------------------------------------------------------|
G|------------------11-11-11-11-11-11-11-11--10-10-10-10-10-10-10-10--|
D|-4-4-4-4-4-4-4-4--x--x--x--x--x--x--x--x---x--x--x--x--x--x--x--x---|
A|-4-4-4-4-4-4-4-4--9--9--9--9--9--9--9--9---8--8--8--8--8--8--8--8---|
E|-2-2-2-2-2-2-2-2----------------------------------------------------|
pm . . . . . . . .

e|-------------------------------------------|x2
B|-6h7p6p7-----6h7p6h7-----9--10-------------|
G|----------6-----------6--------------------|
D|-------------------------------------------|
A|-------------------------------------------|
E|-------------------------------------------|

guitar 2
e|---------------------------------------------------------------------|x2
B|---------------------------------------------------------------------|
G|-----------------------------------7-7-7-7-7-7-7-7-------------------|
D|-4-4-4-4-4-4-4-4--6-6-6-6-6-6-6-6--7-7-7-7-7-7-7-7--8-8-8-8-8-8-8-8--|
A|-4-4-4-4-4-4-4-4--6-6-6-6-6-6-6-6--5-5-5-5-5-5-5-5--8-8-8-8-8-8-8-8--|
E|-2-2-2-2-2-2-2-2--4-4-4-4-4-4-4-4-------------------6-6-6-6-6-6-6-6--|
pm . . . . . . . .

Pre-chorus
guitar 1
e|---------------| |------------------------------|x4
B|---------------| |------------------------------|
G|---------------| |---------------------------6--|
D|-4x-4x-4-4x-5--| |-4-4-4-4-4-4-4-4-4-4-4-4-4-x--|
A|-4x-4x-4-4x-5--| |-4-4-4-4-4-4-4-4-4-4-4-4-4-4--|
E|-2x-2x-2-2x-3--| |-2-2-2-2-2-2-2-2-2-2-2-2-2----|
pm . . . . . . . . . . . .

guitar 2
e|---------------| |------------------------------|x4
B|------------5*-| |---------------------------5*-|
G|------------5*-| |---------------------------5*-|
D|-4x-4x-4-4x-5*-| |-4-4-4-4-4-4-4-4-4-4-4-4-4-5*-|
A|-4x-4x-4-4x----| |-4-4-4-4-4-4-4-4-4-4-4-4-4----|
E|-2x-2x-2-2x----| |-2-2-2-2-2-2-2-2-2-2-2-2-2----|
pm . . . . . . . . . . . .

Chorus
guitar 1
e|-----------------------------------|
B|-----------------------------------|
G|-7-7-7-7-7-7-7-7-------------------|
D|-7-7-7-7-7-7-7-7--4-4-4-4-4-4-4-4--|
A|-5-5-5-5-5-5-5-5--4-4-4-4-4-4-4-4--|
E|------------------2-2-2-2-2-2-2-2--|


e|-----------------------------------------------------------|
B|-----------------------------------------------------------|
G|---------------------------6----------------------------6--|
D|-4-4-4-4-4-4-4-4-4-4-4-4-4-x--4-4-4-4-4-4-4-4-4-4-4-4-4-x--|
A|-4-4-4-4-4-4-4-4-4-4-4-4-4-4--4-4-4-4-4-4-4-4-4-4-4-4-4-4--|
E|-2-2-2-2-2-2-2-2-2-2-2-2-2----2-2-2-2-2-2-2-2-2-2-2-2-2----|
pm . . . . . . . . . . . . . . . . . . . . . . . .

guitar 2
e|-----------------------------------|
B|-----------------------------------|
G|-7-7-7-7-7-7-7-7-------------------|
D|-7-7-7-7-7-7-7-7--4-4-4-4-4-4-4-4--|
A|-5-5-5-5-5-5-5-5--4-4-4-4-4-4-4-4--|
E|------------------2-2-2-2-2-2-2-2--|

e|------------------------------------------------------------|
B|---------------------------5*---------------------------5*--|
G|---------------------------5*---------------------------5*--|
D|-4-4-4-4-4-4-4-4-4-4-4-4-4-5*-4-4-4-4-4-4-4-4-4-4-4-4-4-5*--|
A|-4-4-4-4-4-4-4-4-4-4-4-4-4----4-4-4-4-4-4-4-4-4-4-4-4-4-----|
E|-2-2-2-2-2-2-2-2-2-2-2-2-2----2-2-2-2-2-2-2-2-2-2-2-2-2-----|
pm . . . . . . . . . . . . . . . . . . . . . . . .

guitar 1
e|----------------------------------------------------|
B|----------------------------------------------------|
G|-7-7-7-7-7-7-7-7------------------------------------|
D|-7-7-7-7-7-7-7-7--4-4-4-4-4-4-4-4--6-6-6-6-6-6-6-6--|
A|-5-5-5-5-5-5-5-5--4-4-4-4-4-4-4-4--6-6-6-6-6-6-6-6--|
E|------------------2-2-2-2-2-2-2-2--4-4-4-4-4-4-4-4--|

e|-------------------------------------------|
B|-6h7p6p7-----6h7p6h7-----9--10-------------|
G|----------6-----------6--------------------|
D|-------------------------------------------|
A|-------------------------------------------|
E|-------------------------------------------|

guitar 2
e|---------------------------------------------------------------------|
B|---------------------------------------------------------------------|
G|-7-7-7-7-7-7-7-7-----------------------------------------------------|
D|-7-7-7-7-7-7-7-7--4-4-4-4-4-4-4-4--6-6-6-6-6-6-6-6--8-8-8-8-8-8-8-8--|
A|-5-5-5-5-5-5-5-5--4-4-4-4-4-4-4-4--6-6-6-6-6-6-6-6--8-8-8-8-8-8-8-8--|
E|------------------2-2-2-2-2-2-2-2--4-4-4-4-4-4-4-4--6-6-6-6-6-6-6-6--|

guitar 1 & 2
e|---------------------------------------------------------------------|
B|---------------------------------------------------------------------|
G|-7-7-7-7-7-7-7-7-----------------------------------------------------|
D|-7-7-7-7-7-7-7-7--4-4-4-4-4-4-4-4--6-6-6-6-6-6-6-6--8-8-8-8-8-8-8-8--|
A|-5-5-5-5-5-5-5-5--4-4-4-4-4-4-4-4--6-6-6-6-6-6-6-6--8-8-8-8-8-8-8-8--|
E|------------------2-2-2-2-2-2-2-2--4-4-4-4-4-4-4-4--6-6-6-6-6-6-6-6--|

Verse 2
guitar 1
e|--------------------------------------------------|x8
B|-9--------9--------9--------9---------------------|
G|-----11-------11-------11-------11--------11------|
D|-------------------------------------11-----------|
A|--------------------------------------------------|
E|--------------------------------------------------|

guitar 2
e|--------------------------|x2
B|--------------------------|
G|---------------7~---------|
D|-4~-----6~-----7~-----8~--|
A|-4~-----6~-----5~-----8~--|
E|-2~-----4~------------6~--|

Interlude
guitar 1
e|-------------------------------------------|
B|-------------------------------------------|
G|-----------10-10-10---------13-13-13-------|
D|-----------x--x--x----------x--x--x--------|
A|-----------8--8--8----------11-11-11-------|
E|-------------------------------------------|

guitar 2
e|-------------------------------------------|
B|-------------------------------------------|
G|-11-11-11------------4-4-4-----------------|
D|-x--x--x-------------x-x-x-----------------|
A|-9--9--9-------------6-6-6-----------------|
E|-------------------------------------------|

guitar 1 x3 guitar 2 x7
e|-------------------------------------------| |-xxx-|guitar 2 plays this
B|-------------------------------------------| |-xxx-|when guitar 1 stops
G|-11-11-11---10-10-10---4-4-4---13-13-13----| |-xxx-|and plays section
D|-x--x--x----x--x--x----x-x-x---x--x--x-----| |-xxx-|below, guitar 2 then
A|-9--9--9----8--8--8----6-6-6---11-11-11----| |-xxx-|continues with the
E|-------------------------------------------| |-xxx-|rest.

guitar 1
e|-------------------------------------------|x4
B|-6h7p6p7-----6h7p6h7-----9--10-------------|
G|----------6-----------6--------------------|
D|-------------------------------------------|
A|-------------------------------------------|
E|-------------------------------------------|

Outro pt 1
guitar 1 Only played with 1 guitar but can be played with 2
e|---------------------------------------------------------------------|
B|---------------------------------------------------------------------|
G|-7-7-7-7-7-7-7-7-----------------------------------------------------|
D|-7-7-7-7-7-7-7-7--4-4-4-4-4-4-4-4--6-6-6-6-6-6-6-6--8-8-8-8-8-8-8-8--|
A|-5-5-5-5-5-5-5-5--4-4-4-4-4-4-4-4--6-6-6-6-6-6-6-6--8-8-8-8-8-8-8-8--|
E|------------------2-2-2-2-2-2-2-2--4-4-4-4-4-4-4-4--6-6-6-6-6-6-6-6--|
pm . . . . . . . . . . . . . . . . . . . . . . . . . . . . . . . .

guitar 1 Only played with 1 guitar but can be played with 2
e|-----------------------------------------------------------------|
B|-----------------------------------------------------------------|
G|-7-7-7-7-7-7-7-7-------------------------------------------------|
D|-7-7-7-7-7-7-7-7--4-4-4-4-4-4-4-4--6-6-6-6-6-6-6-6--88X-88X-88X--|
A|-5-5-5-5-5-5-5-5--4-4-4-4-4-4-4-4--6-6-6-6-6-6-6-6--88X-88X-88X--|
E|------------------2-2-2-2-2-2-2-2--4-4-4-4-4-4-4-4--66X-66X-66X--|
pm . . . . . . . . . . . . . . . . . . . . . . . .

Outro pt 2
guitar 1 & 2
e|--------------------------------------------------------------------|x4
B|--------------------------------------------------------------------|
G|-7-7-7-7-7-7-7-7----------------------------------------------------|
D|-7-7-7-7-7-7-7-7--4-4-4-4-4-4-4-4--6-6-6-6-6-6-6-6--8-8-8-8-8-8-8-8-|
A|-5-5-5-5-5-5-5-5--4-4-4-4-4-4-4-4--6-6-6-6-6-6-6-6--8-8-8-8-8-8-8-8-|
E|------------------2-2-2-2-2-2-2-2--4-4-4-4-4-4-4-4--6-6-6-6-6-6-6-6-|

then

e|-----|
B|-----|
G|-----|
D|-4~--|
A|-4~--|
E|-2~--|