Te Acuerdas De Mí

606

E|-12-12--10-8-10-12-12-10-8-------------------------
B|---------------------------12-12-10-8-10-10-8-7-5--
G|---------------------------------------------------
D|---------------------------------------------------
A|---------------------------------------------------
E|---------------------------------------------------

Em C
Te acuerdas de mi
G D Em
yo soy el que ayer se marcho
Bm C
sin pensar, que sin ti
D Em
no existe el verbo amar

Em C
Te acuerdas de mi
G D Em
de aquella mañana de sol
Bm C
junto al mar volvera
D Em
lo que nunca he de olvidar

Am D G Em
Ven niña ven, abrazame
C B7 Em C B7
no sabes cuanto te extrañe


Em C
Te acuerdas de mi
G D Em
el tiempo no pudo borrar
Bm C
este amor que nacio
D Em
junto al mar bajo el sol

solo
Em C G D Em

E|-12-12--10-8-10-12-12-10-8----------------------------------------
B|---------------------------12-12-10-8-10-10-8-7-5-----55-77-8-7-5-
G|------------------------------------------------------------------
D|------------------------------------------------------------------
A|------------------------------------------------------------------
E|------------------------------------------------------------------

Bm C D Em C B7
E|------------------------------------------------------------------
B|--------8-8-7---8-8-/-9-8-7-------11-11-9----11-9----9-11-12------
G|--------------9---------------------------10------10--------------
D|------------------------------------------------------------------
A|------------------------------------------------------------------
E|------------------------------------------------------------------


Am D G Em
Ven niña ven, abrazame
C B7 Em C B7
no sabes cuanto te extrañe

Em C
Te acuerdas de mi
G D Em
el tiempo no pudo borrar
Bm C
este amor que nacio
D Em
junto al mar bajo el sol

IGUAL A LOS VERSOS

A ra A A A, etc

Dedicado atodos a los que les gusta la nueva ola Boliviana
de finales del 60 y principios de los años 70