No Dejes El Tiempo Pasar

6 Voltios

Genero: Rock
Este tema va dedicado para ti raquel tkm! jajaj s bravasa sta
cancion...si me la sake en un tq nomas!


B5 F#5 G#5 F#5 Em-F#5 (x2)

e|-----------------------------------------|
B|-----------------------------------------|
G|-4--11-8--4--6--4----4--11-13--11-9--11--|
D|-x--x--x--x--x--x----x--x--x---x--x--x---|
A|-2--9--6--2--4--2----2--9--11--9--7--9---|
E|-----------------------------------------|

B5 F#5 G#5 F#5 Em-F#5 (x2)

e|-----------------------------------------|
B|-----------------------------------------|
G|-4--11-8--4--6--4----4--11-13--11-9--11--|
D|-x--x--x--x--x--x----x--x--x---x--x--x---|
A|-2--9--6--2--4--2----2--9--11--9--7--9---|
E|-----------------------------------------|

B5 F#5 G#5 F#5 Em-F#5
Mirar
B5 F#5 G#5 F#5 G#5 Em-F#5
y ver el cielo junto a ti
B5 F#5 G#5 F#5 Em-F#5
saber
B5 F#5 G#5 F#5 G#5 Em-F#5
que te amo es suficiente
B5 F#5 G#5 F#5 Em-F#5
creimos
B5 F#5 G#5 F#5 G#5 Em-F#5
en nuestro amor y se hizo realidad
B5 F#5 G#5 F#5 Em-F#5
Sentimos
B5 F#5 G#5 F#5 G#5 Em
besame y deja todo atraz

B5 F#5
Pero no estas aca
G#5 Em
y yo dejo el tiempo pasar
B5 F#5
por que me siento solo
G#5 Em
solo kiero verte una vez mas

B5 F#5 G#5 F#5 Em-F#5 (x2)

e|-----------------------------------------|
B|-----------------------------------------|
G|-4--11-8--4--6--4----4--11-13--11-9--11--|
D|-x--x--x--x--x--x----x--x--x---x--x--x---|
A|-2--9--6--2--4--2----2--9--11--9--7--9---|
E|-----------------------------------------|

B5 F#5 G#5 F#5 Em-F#5 (x2)

e|-----------------------------------------|
B|-----------------------------------------|
G|-4--11-8--4--6--4----4--11-13--11-9--11--|
D|-x--x--x--x--x--x----x--x--x---x--x--x---|
A|-2--9--6--2--4--2----2--9--11--9--7--9---|
E|-----------------------------------------|

B5 F#5 G#5 F#5 Em-F#5
en tu mente
B5 F#5 G#5 F#5 G#5 Em-F#5
es donde siempre kiero estar
B5 F#5 G#5 F#5 Em-F#5
pendiente
B5 F#5 G#5 F#5 G#5 Em-F#5
de cada paso que daras
B5 F#5 G#5 F#5 Em-F#5
aunque ahora no estes
B5 F#5 G#5 F#5 G#5 Em-F#5
yo nunk te Voy a olvidar
B5 F#5 G#5 F#5 Em-F#5
aunque estes tan lejos
B5 F#5 G#5 F#5 G#5 Em
en mi corazon siempre estaras

B5 F#5
Pero no estas aca
G#5 Em
Espero el dia en que volveras
B5 F#5
y me siento solo
G#5 Em
hecho mierda una vez mas

B5 F#5 G#5 F#5 Em-F#5(x4)
B8 G#8 F#8 Em8

e|-----------------------------------------------
B|-----------------------------------------------
G|-----------------------------------------------
D|----4----2----1----2----4----4----2----1----2--
A|--22---22---22---22---22---22---22---22---22---
E|-----------------------------------------------

----------------------------------------|
----------------------------------------|
----------------------------------------|
--1----4----2----1----2----4----4----2--|
22---22---22---22---22---22---22---22---|
----------------------------------------|


D#5 C#5 B5

Solo, dime que todo estara bien
mienteme, no dejes el tiempo pasar

B5 F#5 G#5 F#5 Em-F#5 (x2)

e|-------------------------------------------|
B|-------------------------------------------|
G|-4--11-8--4--6--4----4--11-13--11-9--11-4--|
D|-x--x--x--x--x--x----x--x--x---x--x--x--x--|
A|-2--9--6--2--4--2----2--9--11--9--7--9--2--|
E|-------------------------------------------|

B5 F#5
Pero no estas aca
G#5 Em
y yo dejo el tiempo pasar
B5 F#5
por que me siento solo
G#5 Em B5
solo kiero verte una vez mas

--------------------------------------------------------------

Dudas, comentarios! Spectro_punk5@hotmail.com

Saludos a toa la promo de 5to del adviento d miraflorex!
Pronto “Anexo” jajajja ia veremossss……