Lección De Ingles

6 Voltios

Genero: Rock

Escuchar Lección De Ingles

Tablatura

Esta es una de las mejores canciones del \'tan solo
una vez más\' y la verdad es ke me alucina bastante
xke me identifico bastante con ella...para la tipa ke
no conozco

Notas:


Intro (los acordes van debajo del punteo)

B5 F#5 G#5 E5 F#5(2)
|----------------------------------------|
|----------------------------------------|
|----------------------------------------|
|-----1-2-4-----1-2-4--------------------|
|-2-2-------2-2------------1-2-4-6-4-2-1-|
|----------------------2-2---------------|

|----------------------------------------|
|----------------------------------------|
|----------------------------------------|
|-----1-----2-----1-----1-2-2-2-2-4-4-4-4|
|-2-2---2-2---2-2---2-2------------------|
|----------------------------------------|


B5 F#5 G#5 D#5 E5
Un viernes te conocí, sábado te dejaste besar
F#5(2) B5 F#5 Em F#5
estuvimos ebrios la pasé muy bien
B5 F#5 G#5 D#5
el domingo no perdí tiempo, en dos semanas se irá
E5 F#5(2) B5 F#5 Em F#5
y fue así ke mejor pienso rápido


B5 B5 F#5 F#5
Me agarró de la mano ella me hizo bailar
G#5 E5 F#5(2)
no puedo hablar solo besarte


B5 F#5 G#5 E5 F#5(2) (hay muteos akí)
|-----------------------------------------|
|-----------------------------------------|
|-----------------------------------------|
|---4-2-1-----4-2-1-----------------------|
|-2-------2-2-----------7-6-4-----7-6-4---|
|---------------------4-------4-4---------|


B5 F#5 G#5 D#5 E5
Fue por ella ke fuí a un rave y por mi algo natural fumó
F#5(2) B5 F#5 Em F#5
en las estrellas nuestro amor kedó
B5 F#5 G#5 D#5 E5
Amarte! BEsarte! agarrar tu mano me hizo sentir bien
F#5(2) B5 F#5 Em F#5
Tan bien


B5 B5 F#5 F#5
Es una lección de inglés poder amarte
G#5 E5 F#5(2)
por tí hablaré por tí perdí mi celular


(Solo)
B5 F#5 G#5 E5 F#5(2)
|---------------------------------------------------|
|---------------------------------------------------|
|---------------------------------------------------|
|-------4-2-1--------4-2-1-------1-----1-2-2-2-4-4-4|
|-2--2-2------4-1-1-1------4---2---2-2--------------|
|----------------------------4----------------------|



B5 F#5 G#5
yo sé ke ella se irá tal vez regresará
E5 F#5(2)
lo admito es difícil de aceptar
B5 F#5 G#5
dos semanas y la pasé genial
G#5 E5 F#5(2)
lo admito será difícil de olvidar


B5 F#5
es una lección de ingles poder amarte
G#5 A#5 B5 A#5 G#5 F#5 E5 F#5(2)

B5 F#5
es una lección de ingles poder amarte
G#5 A#5 B5 A#5 G#5 F#5

E5 F#5(2) B5
por tí perdí mi celular


Esta es una de las mejores canciones del disco de la
sierra eléctrica (compren el original malditos pirateros)
Como ya los mencioné va dedicada para la tipa de los
mensajes anónimos ke dice no son broma
...trataré de creerle y la esperaré sentado...



KeeP On PuNk Rockin!
EL pUnK No Es MODA Ni EtiKeTA...eS AktItUd!