Estrella De La Noche

4 Del Altiplano

Genero:

Tablatura

Adaptación de los 4 del Altiplano del vals venezolano
"Cómo llora una estrella" de Antonio Carrillo

La tonalidad original está en C#m, pero puede ser tocada en La menor
con capo en el 4to traste.

--[INTRO]--
La melodía se puede tocar con dos guitarras
(La 2da guitarra toca la misma melodía pero una octava abajo)

C#m G# C#m C#m C#7 F#m
e|---------------/9----/9-----|--------------/9----/9------|
B|--------7-8-9-----9-----9---|-------7-8-9-----9-----10---| (GTR1)
G|--6-8-9---------------------|-6-8-9----------------------| 8va alta
////////////////////////////////////////////////////////////
G|---------------/6----/6-----|--------------/6----/6------|
D|--------4-5-6-----6-----6---|-------4-5-6-----6-----7----| (GTR2)
A|--4-6-7---------------------|-4-6-7----------------------| 8va baja
E|----------------------------|----------------------------|

F#m C#m
e|---------------------|------------------|
B|--7-9-10-9-7-10-10---|--7-9-10-9-7-10-9-| (GTR1)
G|---------------------|------------------| 8va alta
///////////////////////////////////////////
G|----------------------------------------|
D|--4-6-7--6-4-7--7----|--4-6-7--6-4-7--6-| (GTR2)
A|---------------------|------------------| 8va baja
E|---------------------|------------------|

G# G#7 C#m
e|---------------------------------------/9--||
B|----7-9-7---9--------9-7-------------9-----|| (GTR1)
G|--9-------9----8--8-------9--8-6--9--------|| 8va alta
//////////////////////////////////////////////
G|---------------------------------------/6--||
D|----4-6-4---6--------6-4-------------6-----|| (GTR2)
A|--7-------7----6--6-------7--6-4--7--------|| 8va baja
E|-------------------------------------------||

--[VERSO]--
C#m G# C#m
Estrella de la noche, tú, serás,
C#m C#7 F#m
la compañera fiel, de mi canción
F#m C#m
que vagas por la noche, henchida de romántica ansiedad
G# G#7 C#m
bajo la dolorosa ternura del amor. (bis)

G#
Tú que por su ventana puedes ver
C#m
acércate a la reja y dile qué
G#
mi corazón suspira por su amor
C#m C#7
que yo me estoy muriendo del dolor
F#m
Dile que una palabra, nada más
C#m
que salga de sus labios, podrá ser
G# G#7 C#m
la dicha de mi vida, la felicidad. (bis)

(Intro)

C#m G# C#m
Recuerdos del ayer, que fue pasión
C#m C#7 F#m
el suave titilar que hay en ti
F#m C#m
pero al no sentir tu raro amor de ayer
G# G#7 C#m
estrella solitaria llorarás de amor. (bis)

G#
Dame la tierna luz
C#m
que tiene tu mirar
G#
que esconde el titilar
C#m C#7
de una estrella de amor
F#m
y en éxtasis profundo de pasión
C#m
mil versos tristes yo te brindaré
G# G#7 C#m
y en tu lozana frente posaré la estrella de este gran amor. (bis)

--------------------------------
Dudas, sugerencias, comentarios:
bioquimceiaf@gmail.com