Tema Central Del Noticiero

31 Minutos

Genero:

Tablatura

-----------------------------------------
-----------------------------------------
-9-10-9-13-9-10-9-13-9-10-9----9---------
----------------------------10-----------
-----------------------------------------
-----------------------------------------

-------------------------------------
-------------------------------------
-9-10-9-13-9-10-9-13-9-10-9----------
----------------------------10/18/10-
-------------------------------------
-------------------------------------

---------------------------------------------------------------------------------
----------------------------------------------------------------12---------------
-9-10-9-13-9-10-9-13-9-10-9----9-13-11-9-11-9----9----13-9-11-9----9-13-11-9-11-9
----------------------------10----------------10---10----------------------------
---------------------------------------------------------------------------------
---------------------------------------------------------------------------------

Ahi esta la primera parte, la segunda ya viene calmaos.
-Un despacho para 31 Minutos. adelante Tulio... ja!