Rinrraja

31 Minutos

Genero:

Tablatura

Esta canción lleva 2 guitarras la primera realiza los punteos y la
segunda los acordes ke se indican

G Em
-------------------------------------------------------------
-------------------------------------------------------------
--7-5-4-5-4-------4---4-5-4--------7-5-4-5-4-------4---4-5---
------------7-5-7---7-------7-5--------------7-5-7---7-----7-
-------------------------------------------------------------
-------------------------------------------------------------

G Em
toco cuatro timbres y me pongo a correr rapido
G Em
sale la vecina que no para de gritar
G Em
atrapen a ese niño que la siesta no deja tomar
G Em
suelten a los perros que lo busquen sin cesar

G Em
soy un fujitivo y atraparme nunca lograran
G Em
toco cuantos timbres que no los puedo contar
G Em
vivo de peligros de aventura mucha exitacion
G Em
andar tocando timbres es mi unica pasion


coro
( el coro lleva este punteo encima )

E---------------------------------------5-6-5---------
B---5-6-5---5-6-5---5-6-8-----5-6-8-6-8-------8-6-8---
G---------7-------7-----------------------------------
D-----------------------------------------------------
A-----------------------------------------------------
E-----------------------------------------------------

E-----------5-6-5-6-8-6-5-6-5-6-----------------------
B-5-6-8-6-8-------------------------------------------
G-----------------------------------------------------
D-----------------------------------------------------
A-----------------------------------------------------
E-----------------------------------------------------

E----------10-11-13-11-10----10-11-13-11-10-----------
B-10-11-13----------------13----------------13--------
G-----------------------------------------------------
D-----------------------------------------------------
A-----------------------------------------------------
E-----------------------------------------------------


F
Cuando se asoman a verme ya me fui
por que soy rin raja profesional
toco timbres a una gran velocidad y soy el juan
un relampago de luz que corre toda la ciudad


G Em
Dicen que es un juego y sirve solo para molestar
G Em
por que no comprenden su real dificultad
G Em
tocar timbres si es capaz requiere gran habilidad
G Em
el rin raja deberia ser deporte nacional

G Em
muchos de nosotros lo tomamos con gran seriedad
G Em
y lo practicamos dia a dia sin cesar
G Em
aunque llueva nieve truene o caiga lava de un volcan
G Em
siempre encontramos un buen timbre que tocar

coro: cuando se asoman a verme ya me fui ...

D B F#m A
riiiiin riiiiin raaaaaa jaaaaaa
D B F#m F#m
riiiiin riiiiin raaaaaa jaaaaaa
D B F#m A
riiiiin riiiiin raaaaaa jaaaaaa
D B F#m G
riiiiin riiiiin raaaaaaaaaaaaaa jaaaaaaaa

G Em
en un dia cualquiera toco 1536
G Em
y con esa cifra ya me puedo retirar
G Em
llego a una puerta toco el timbre y ya no puedo mas
G Em
pero no me importa por que sale mi mama.


AKI ESTA CON LA PARTE KE FALTABA EN EL CORO