Rin Raja

31 Minutos

Genero: Pop

Tablatura

Ahi les va esta excelente canción
sólo debes ser rápido con los dedos y seguir las instrucciones ;)

e----------------------------------------------\
B---------------------------------------------- \
G---------------------------------------------- \
D-12-10----10-9----------9----9-10-9----------- \
A-------12------12-10-12---12--------12-10----- \
E---------------------------------------------- \
\ Riff#1
/ (se toca en
e---------------------------------------------- / la parte A)
B---------------------------------------------- /
G---------------------------------------------- /
D-12-10----10-9----------9----9-10------------- /
A-------12------12-10-12---12------12---------- /
E----------------------------------------------/

e----------------------------------------------------------------\
B--------------------------------------------10-11-10------------ \
G-9-10-9----9-10-9----9-10-12~-9-10-12-10-12----------12-10-12~-- \
D--------12--------12-------------------------------------------- \
A---------------------------------------------------------------- \
E---------------------------------------------------------------- / Riff#2
/ (se toca
e----------------------------------------------- / en la
B---------------10-11-10-11-13-11-10-11-10-11--- / parte B)
G-9-10-12-10-12--------------------------------- /
D----------------------------------------------- /
A----------------------------------------------- /
E----------------------------------------------- /
_______/
e----------10-11-13-11-10----10-11-13-11-10----- /
B-10-11-13----------------13----------------13~- /
G----------------------------------------------- /
D----------------------------------------------- /
A----------------------------------------------- /
E-----------------------------------------------/

INTRO:
Riff#1
Rin-rin raja Rin-rin-rin raja

A)(En esta parte se repite varias veces el riff#1)

G Em
Toco 4 timbres y me pongo a correr rapido
G Bm
sale la vecina que no para de gritar:
G Em
\'Atrapen a ese niño que la siesta no deja tomar,
G Bm
suelten a los perros que lo busquen sin cesar\'

Soy un fugitivo y atraparme nunca lograrán
toco tantos timbres que no los puedo contar.
Vivo de peligros, de aventuras, mucha excitación
andar tocando timbres es mi única pasión.

B)(Aqui se toca el riff#2)
F
Cuando se asoman a verme ya me fui
porque soy un rin raja profesional
Toco timbres a una gran velocidad y soy el Juan
un relámpago de luz que cruza toda la ciudad.

A)(Riff#1)
Dicen que es un juego y sirve sólo para molestar
porque no comprenden su real dificultad
tocar timbres y escapar requiere gran habilidad
el rinraja debiera ser deporte nacional

Muchos de nosotros lo tomamos con gran seriedad
y lo practicamos día a día sin cesar
aunque llueva, nieve o truene o caiga lava de un volcán
siempre encontraremos un buen timbre que tocar.

B)(Riff#2)
Cuando se asoman...

C)
D Bm F#m A
Rin-rin-ra ja
D Bm F#m
Rin-rin-raja
D Bm F#m A
Rin-rin-ra ja
D Bm F#m G
Rin-rin-ra..ja..
A)(Riff#1)
En un día cualquiera toco 1536
y con esa cifra ya me puedo retirar
llego a una puerta, toco el timbre y ya no puedo más
pero no me importa porque me abre mi mamá.

Outro: Riff#1
Rin-rin-raja Rin-rin-rin-raja



(·)--) (·)-)
) |
(·)--) |
) |
(·)--) |
Minutos

Ojalá les halla gustado. Un saludo pal G y bueno a
\'THE CLINIC\'
Cualquier pregunta, correción sobre esta o cualquier
otra canción mandenme un correo a radioandroid@hotmail.com

chauuuu
RKRDO.