Mico, El Micofono

31 Minutos

Album: 31 Minutos
Genero: Pop

Tablatura (Ver letra)

Jelou...weno este es mi humilde aporte:

e--------------------------------------------
B--------------------------------------------
G-3-0-------0-------3-0-------0-----0/3-0/3--
D-----3-3-3---3-0-3-----3-3-3---3-0---------- x3
A--------------------------------------------
E--------------------------------------------

e------------------------------------
B------------------------------------
G-3-0-------0-------3-0--------------
D-----3-3-3---3-0-3-----3-3-3--------
A------------------------------------
E------------------------------------

e--------------------------------------------
B--------------------------------------------
G-3-0-------0-------3-0-------0-----0/3-0/3--
D-----3-3-3---3-0-3-----3-3-3---3-0----------
A--------------------------------------------
E--------------------------------------------

e------------------------------------
B------------------------------------
G-3-0-------0-------3-0--------------
D-----3-3-3---3-0-3-----3-3-3--------
A------------------------------------
E------------------------------------

e------------------
B------------------
G-3-0--------------
D-----3-3-3-------- x2
A------------------
E------------------

Aguante 31 Minutos!!!... Aralito_xmf not dead!!!
Aguante EoY!!!