Calcetín Con Rombos Man

31 Minutos

Album: 31 Minutos
Genero: Pop

Tablatura (Ver letra)

   Intro		1ª Parte
e|-6-6-6-6-6-6-|-1-----------|-------1-------4-1-|
B|-------------|---4-2-4-2---|---2-4---4-2-4-----|
G|-------------|-----------3-|-3-----------------|
D|-------------|-------------|-------------------|
A|-------------|-------------|-------------------|
E|-------------|-------------|-------------------|


e|-------1-----------|-6-8-9-9----9-11-13-11-9----|
B|---2-4---4-2-4-2---|---------11--------------11-|
G|-3---------------3-|----------------------------|
D|-------------------|----------------------------|
A|-------------------|----------------------------|
E|-------------------|----------------------------|

Coro
e|-13-11-9-11-9-|-13-11-9----9-|-13-11-9-11-9-|----9-11-13-13-11-9-6-|
B|--------------|---------11---|--------------|-11-------------------|
G|--------------|--------------|--------------|----------------------|
D|--------------|--------------|--------------|----------------------|
A|--------------|--------------|--------------|----------------------|
E|--------------|--------------|--------------|----------------------|

2ª Parte
e|------1-----------|-------1-------4-1-|
B|-2-4----4-2-4-2---|---2-4---4-2-4-----|
G|----------------3-|-3-----------------|
D|------------------|-------------------|
A|------------------|-------------------|
E|------------------|-------------------|


e|-------1-----------|-6-8-9-9----9-11-13-11-9----|
B|---2-4---4-2-4-2---|---------11--------------11-|
G|-3---------------3-|----------------------------|
D|-------------------|----------------------------|
A|-------------------|----------------------------|
E|-------------------|----------------------------|

Coro
e|-13-11-9-11-9-|-13-11-9----9-|-13-11-9-11-9-|----9-11-13-13-11-9-6-|
B|--------------|--------11----|--------------|-11-------------------|
G|--------------|--------------|--------------|----------------------|
D|--------------|--------------|--------------|----------------------|
A|--------------|--------------|--------------|----------------------|
E|--------------|--------------|--------------|----------------------|

Final
e|----14-19-19-19-|
B|-13-------------|
G|----------------|
D|----------------|
A|----------------|
E|----------------|