A Romper La Calma

2x

Genero:

Tablatura


este es el intro y las estrofas de la cancion


e----------------------------------------
B----------------------------------------
G-----------------4---------------------
D----------------------------------------
A------0---2---0---------0---2---0-------
E-2-2-2--2---2---2--2-2-2--2---2---2-0-1-


este es el coro:

e------------------
B------------------
G------------------
D--4-4d--7d-9------
A--4-4d--7d-9------
E--2-2d--5d-7------


en la parte que toca el dj:

e----------------
B----------------
G----------------
D--4-4-4-4-------
A--4-4-4-4-------
E--2-2-2-2-------

el final es igual a esta ultima parte

esta fue otra de squallmaster(jose verdejo)