Para ñoños

250 Centavos

Genero:

Tablatura

Intro

e-|-------------------------|
b-|-------------------------|
g-|-5-5-5-5/8-8-8-7-7-7-5---|
d-|-5-5-5-5/8-8-8-7-7-7-5---| x3
a-|-3-3-3-3/6-6-6-5-5-5-3---|
E-|-------------------------|

e-|-----------------------------------------------|
b-|-----------------------------------------------|
g-|-5-5-5--5-5-5--5-5-5---------X-5-X-5-X-5-X-5---|
d-|-5-5-5--5-5-5--5-5-5--5-5-5--X-5-X-5-X-5-X-5---|
a-|-3-3-3--5-5-5--3-3-3--5-5-5--X-3-X-3-X-3-X-3---|
E-|--------3-3-3---------3-3-3--------------------|

C G C
Que Difícil Debe Ser Ser Como Vos
C G C
Y Que Nadie Le Interese Tu Opinión
F E D
Asumís Posturas Para Negociar
F E D
Cultivas Tu Sucio Lucro En Los Demás

en el final de cada verso hace:
e-|----------------|
b-|----------------|
g-|-5-/-7-/-9------|
d-|-x-/-x-/-x------|
a-|-3-/-5-/-7------|
E-|----------------|

Ver Vender Tu Imagen Me Da Gracia
Y Todos Conocemos Bien Tu Farsa
Lo De Pogo En Recitales Se Acabo
Adoremos A Tu Amada Gran Nación

C G
Yo Que Vos Me Mato
F G
Y Me Cago En Tu Opinión
C G
Hagan Pogo Loko
F G
Que No Acabe Esta Emoción


A
Si Vos Lo Sabes
F
Yo También Lo Se
A G
Que Sos Un Careta Más
G
Una Rata De Cloaca Más

Ver Vender Tu Imagen Me Da Gracia
Y Todos Conocemos Bien Tu Farsa
Lo De Pogo En Recitales Se Acabo
Adoremos A Tu Amada Gran Nación

Yo Que Vos Me Mato
Y Me Cago En Tu Opinión
Hagan Pogo Loko
Que No Acabe Esta Emoción

Si Vos Lo Sabes
Yo También Lo Se
Que Sos Un Careta…
Una Rata De Cloaca Más

Termina haciendo asi
e-|-------------------------|
b-|-------------------------|
g-|-5-5-5-5/8-8-8-7-7-7-5---|
d-|-5-5-5-5/8-8-8-7-7-7-5---|
a-|-3-3-3-3/6-6-6-5-5-5-3---|
E-|-------------------------|

AGUANTE EL PUNK!!!
QUE NO ACABE ESTA EMOCION LOKO
LUIS_DAMMIT