No Me Importa Nada

250 Centavos

Genero:

Tablatura

Antes de empezar hace repetidas veces:
e|-------------------
b|-------------------
g|-------------------
d|-------------------
a|-------------------
E|------0-2----------

Intro: F#5 D5 E5 la5/sol#5
F#5 D5 re#5/mi5 re#5/mi5 re#5/mi5 re#5/mi5

e|------------------------------
b|------------------------------
g|------------------------------
d|------------------------------
a|------------------------------
E|------2-4-5-4-4---------------


F#5 D5
Ya no puedo seguir así (uoo)
E5 A5
Pasa el tiempo y siento morir
F#m5 D5 E5
Una vez más (una vez mas)
A5 G#5
veneno corre en mi
F#5 D5
No siento nada (nada)
E5 A5 G#5
no puedo sonreír
F#5 D5 E5
Afuera aun brilla el sol y todo se derrumba

A5 E5 D8 E8
Y no me importa mas nada (nada mas) (X 4)
Nada!!

Intro

Ya no puedo seguir así (uoo)
Pasa el tiempo y siento morir
Una vez más (una vez mas) veneno corre en mi
No siento nada (nada) no puedo sonreír
Afuera aun brilla el sol
Y todo se derrumba

A5 E5 D8 E8
Y no me importa mas nada (nada mas) (X 4)
Nada!!

(Repite el primer solo)
Termina asi:
e|----------------------------
b|----------------------------
g|----------------------------
d|----7/6-7/6---4-4--4--4-----
a|----7/6-7/6---4-4--4--4-----
E|----5/4-5/4---2-2--0--2-----


***********************************************
Eso es todo el tema, gracias el ricky por darme
le punk nuestro de kada dia.
Soy fausto caro de Jujuy, guitarrista de la
banda “maldita existencia” un saludo a los muchachos.