Aún Puedo Escucharte

2112

Genero:

Tablatura

e|-------------------|-----------|
B|-------------------|-----------|
G|-------------------|-----------|
D|--5---3------------|-5-5--5-5--|
A|----5---3--5-3-5---|-----------|
E|-----------------3-|-----------|

e|----------------------------------------------|
B|------------------------------13-12-13-15-----|
G|-10/12-10---7/9-7---10/12-10--------------10--|
D|----------------------------------------------|
A|----------------------------------------------|
E|----------------------------------------------|

La estrofa hace así:

D C
e|------------------|
B|------------------|
G|-----7--------5---|
D|-----7--------5---|
A|-----5----7---3---|
E|--3---------------|


D C
Detrás de los portales, me llegan tus sonidos
D C
Y subyaciendo está la música
D C
Detrás de los umbrales y detrás de la agonía
D C
Está la eterna melodía

F Eb G
La cristalina magia de este sol
F Eb G
La voz que se repliega y que calló
F Eb G
No desesperes que aún puedo
F Eb G
Aún puedo escucharte

C
e|--------|
B|--------|
G|----5---|
D|----5---|
A|----3---|
E|-1------|


Puente en C


D C
Cubierto de cenizas, y de rasgos materiales
D C
Sobreviviendo está la música
D C
Y no hay arma en el mundo que pueda detener
D C
La marcha de los que quieren ser

F Eb G
La cristalina magia de este sol
F Eb G
La voz que se repliega y que calló
F Eb G
No desesperes que aún puedo
F Eb G
Aún puedo escucharte


Solo en D y C (como la estrofa)


e|-------------------|-----------------------|
B|-------------------|-----------------------|
G|-------------------|-----------------------|
D|--5---3------------|-5---3----5-5--5-5-----|
A|----5---3--5-3-5---|---5---3---------------|
E|-----------------3-|--------------------3--|