Olivar

1280 Almas

Genero:

Tablatura

aterrate..........
E------------------------------------------------------------
A----4-7-4-7-4----4-7-4-7-4----------------------------------
D--5------------5--------------4-7-4-7----4-7-4-7-4----------
G----------------------------5----------5--------------------


cuidado....

-------------------------------------------------
----4-7---4-7------------------------------------
--5-----5--------4-7----4-7----------------------
---------------5------5--------------------------


quitate del via....

-----------------------------------------
--4-2---2----4-2---2---------------------
5-----5----5-----5-----------------------
-----------------------------------------

escucha la cancion esta bien pero tienes que cogerle el ritmo