La 22

1280 Almas

Genero:

Tablatura

la 22
ahi va otra de esta buena banda

el intro

--------3-----------------------------3--------------------------
---5-5----5-5--0-----------------5-5----5-5--0-------------------
-----------------3-3--0--3-3-------------------3-3--0-3-3--------
-----------------------------3-----------------------------3-----

y esta es la parte rapida

-----------3--3--------------------------------------------------
---------5--5--5-3-0-3-0-3---------------------------------------
---------------------------3-------------------------------------
----------------------------3------------------------------------


--------3-----------------------------3--------------------------
---5-5----5-5--0-----------------5-5----5-5--0-------------------
-----------------3-3--0--3-3-------------------3-3--0-3-3--------
-----------------------------3-----------------------------3-----