El Peñon De Gibraltar

113 Vicios

Genero:

Tablatura

Intro:(se repite 2 veces)

A
A|------1----------------| (por 2)
E|-0-1-3-3-5-5-5-5-5-5-5-|

A A# C A
A|------1----------------------------------|
E|-0-1-3-3-5-5-5-6-6-6-8-8-8-5-5-5-5-5-5-5-|

A A# A A# A
Agitándose… como tu cuerpo en mi lecho,
A# A
Mi barca va… A|------1--|
E|-0-1-3-3-|

A A# A A# A
Meciéndose… como tu cuerpo en mi lecho,
A# A
Mi barca va… A|------1--|
E|-0-1-3-3-|

A A#
Acercándose al peñón…
A A#
Acercándose al peñón…
A A# C A# A
Acercándose al peñón de Gibraltar,

A A# Gm A A# Gm A
Haaaaaaaaaaaaaaaaaaaaaaa…

A A# Gm A A# Gm A
Haaaaaaaaaaaaaaaaaaaaaaa…


(se repite 2 veces)
A
A|------1----------------| (por 2)
E|-0-1-3-3-5-5-5-5-5-5-5-|

A A# C A
A|------1----------------------------------|
E|-0-1-3-3-5-5-5-6-6-6-8-8-8-5-5-5-5-5-5-5-|


A A# A A# A
Agitándose… como tu cuerpo en mi lecho,
A# A
Mi barca va… A|------1--|
E|-0-1-3-3-|

A A# A A# A
Meciéndose… como tu cuerpo en mi lecho,
A# A
Mi barca va… A|------1--|
E|-0-1-3-3-|

A A#
Acercándose al peñón…
A A#
Acercándose al peñón…
A A# C A# A
Acercándose al peñón de Gibraltar,

A A# Gm A A# Gm A
Haaaaaaaaaaaaaaaaaaaaaaa…

A A# Gm A A# Gm A
Haaaaaaaaaaaaaaaaaaaaaaa…


(repite 2 veces y al final termina con Re5)
A A# A
E|--------------------------------------------5--6--5-|---|
B|--------------------------------------------5--6--5-|---|
G|------5-5-5-5-5-5-5-------7-7-7-7-7-7-7-5-3-6--7--6-|-7-|
D|10-10-5-5-5-5-5-5-5--5-5--7-7-7-7-7-7-7-5-3-7--8--7-|-7-|
A|-8-8--3-3-3-3-3-3-3--5-5--5-5-5-5-5-5-5-3-1-7--8--7-|-5-|
E|---------------------3-3--------------------5--6--5-|---|

A A# C Gm
E|-5-| E|-6-| E|-8-| E|-3-|
B|-5-| B|-6-| B|-8-| B|-3-|
G|-6-| G|-7-| G|-9-| G|-3-|
D|-7-| D|-8-| D|-10-| D|-5-|
A|-7-| A|-8-| A|-10-| A|-5-|
E|-5-| E|-6-| E|-8-| E|-3-|